» » »

Taproot - Believed Tabs

Artists:  A B C D E F G H I J K L M N O P Q R S T U V W X Y Z # 

Believed Tabs

(ver. 3) Click to play this song!
Taproot
 Rating:
4/5 (4 votes)

 Believed lessons Tabs too difficult? Try these video lessons and learn fast
 
                TUNING: tune your guitar as follows (A-D-G-C-F-A)


     RIFF A:

    A|--------------------------------------------|
    F|--------------------------------------------|
    C|------------11----------11----------11------|
    G|-----11---9------11---9------11---9----12-\-|
    D|---9----7------9----7------9----7------12-\-|
    A|---------------------------------------10-\-|

     RIFF B:

    A|----15-14------15-14----14--|
    F|---------------------15-15--|
    C|----------------------------|
    G|----------------------------|
    D|----------------------------|
    A|----------------------------|

     RIFF C:

    A|---------------------------------------------------------------|
    F|---------------------------------------------------------------|
    C|------------11----------11----------11-------------------------|
    G|-----11---9------11---9------11---9----12-12-12-12-12-12-12-12-|
    D|---9----7------9----7------9----7------12-12-12-12-12-12-12-12-|
    A|---------------------------------------10-10-10-10-10-10-10-10-|

     RIFF D:

    
A|----------------------------------------------------------------------------------|
    
F|----------------------------------------------------------------------------------|
    
C|---------------------------------------------------13-13-13-13--9-9-9-9-9-9-9-9-9-|
    
G|---4-4-4-4-4-2-2-2-2-2-2-4-4-4-4-4-4-4-4-4-4-4-4-4--------------7-7-7-7-7-7-7-7-7-|
    
D|---4-4-4-4-4-2-2-2-2-2-2-4-4-4-4-4-2-2-2-2-2-4-4-4-11-11-11-11--5-5-5-5-5-5-5-5-5-|
    
A|---2-2-2-2-2-0-0-0-0-0-0-2-2-2-2-2-0-0-0-0-0-2-2-2--0--0--0--0--------------------|

     RIFF E:

    A|------------------------|
    F|------------------------|
    C|----12-12-12---11-------|
    G|--------------------12--|
    D|------------------------|
    A|------------------------|

     RIFF F:

    A|------------------------------|
    F|------------------------------|
    C|------------------------------|
    G|------------------------------|
    D|---2-3-2-3-4^-2-3-2-5^-2-3-3^-|
    A|---0-1-0-1-2^-0-1-0-3^-0-
            
Submit corrections


        Believed lessons Hard to play? Try these video lessons and learn fast Believed lessons
        
↑ Back to top | Tablatures and chords for acoustic guitar and electric guitar, ukulele, drums are parodies/interpretations of the original songs. You may use it for private study, scholarship, research or language learning purposes only