» » »

Tantric - Inside Your Head Tabs

Artists:  A B C D E F G H I J K L M N O P Q R S T U V W X Y Z # 

Inside Your Head Tabs

(ver. 1) Click to play this song!
Tantric
 Rating:
4.2/5 (5 votes)


 Inside Your Head lessons Tabs too difficult? Try these video lessons and learn fast
 
                Tantric - Inside Your Head

tune down a half step
Eb, Ab, Db, Gb, Bb, Eb


e--------------------------------------------------------------
b---------0-------------0---------------0-------------0--------
g-----7-----7---7---------7---7-----6-----6---6---------6---6--
d-----------------5-----------------------------5--------------
a---7---7-----7-----7-------7-----7---7-----7-----7-------7----
e-0-------------------0---------0-------------------0----------


e-------------------
b-------------------
g-------------------
d-----------2-4-5---
a-------2-5---------
e-0-3-5-------------


Chorus: 1st measure played 3rd time only

e------------------|-------------------------------------------------
b------------0---0-|-------------0-------------0---0-------------0---
g----------7---7---|-----4-----2---0---------7---7-------4-----2---0-
d--------9---------|---5-----2-------------9-----------5-----2-------
a---7-10-----------|-3-----0------------10-----------3-----0---------
e-0----------------|------------------7------------------------------


Fill 1

e----10-----10-------10--------------9------9--
b-------8--------8-------8---8---8------8------
g-/9------9--------9-------9---9---9------9----
d----------------------------------------------
a----------------------------------------------
e----------------------------------------------


fill 2

e----------------------------------------------
b-------------12-------------------------------
g-------12-14----14-12----12-------------------
d-12-14----------------14----12-14-------------
a----------------------------------------------
e----------------------------------------------

                          end of fill 2
e--------------------------------------
b------------15-12h15p12-------14--14--
g---------12-------------12----12--12--
d---12-14-------------------14-14--14--
a--------------------------------------
e--------------------------------------


Guitar solo: (pink floyd style) :)

e------------------------------------------------------------
b-------------12----------15--------------12-14-14b14~~~~~~--
g-----12-14b-----14b~--------14b(r)p12----12-14-14b14~~~~~~--
d-/14----------------------------------14--------------------
a------------------------------------------------------------
e------------------------------------------------------------

         Hold____________|
e------------------------------------------------------------------
b-------------15----15----15------------------------12-14-14b14~~--
g-----12-14b-----14----14----14b~--14b-12~-14p12----12-14-14b14~~--
d-/14--------------------------------------------14----------------
a------------------------------------------------------------------
e------------------------------------------------------------------


e-------------------------------------------------
b-------------------------------------------------
g-------------------------------------------------
d---14-12-----------------------------------------
a---------14-12\10----12-10-----------------------
e------------------12-------12-10~--10-12~~(12)\--

                                               hold_____|
e-------------------------------------12-14p12-15b--15-15~~--
b-------------------12h15p12----12-15------------------------
g-------------12-14----------14------------------------------
d-------12-14------------------------------------------------
a-12-14------------------------------------------------------
e------------------------------------------------------------


e--15-17-17b~~--15-------------------14-15-14~~-------------
b------------------17-17~~~~17~~~~17------------17-15-17~~--
g-----------------------------------------------------------
d-----------------------------------------------------------
a-----------------------------------------------------------
e-----------------------------------------------------------

                                            solo end
e---------------------------------------------------
b-15----15~~----------------------------------------
g----16------16-14-16-14-12-14-12----12-------------
d---------------------------------14----14-12-14~~--
a---------------------------------------------------
e---------------------------------------------------

                                 and the nights grow colder...
e----------------------------------------------------------------
b-------------------------------------------------------0-0------
g---------------7-7-----7-7-------------4-4---------2-2-----0-0--
d-----------9-9-----9-9-----9-9-----5-5---------2-2--------------
a-7-7-10-10---------------------3-3---------0-0------------------
e----------------------------------------------------------------
  PM............................................................


 its inside your head...
e---------------------------------
b---------------------------------
g---------------5-5-x-2--2-2-2----
d-2-2-2-2-x-2---5-5-x-2--2-2-2----
a-2-2-2-2-x-2---3-3-x-0--0-0-0-0--
e-0-0-0-0-x-0-0-------------------


Fill 3.   16 times

e-12----------------------
b----12-15~~-12----12-----
g---------------14--------
d-------------------------
a-------------------------
e-------------------------


fill 4    8 times

e--0-0-0-0-0-0-0--0-0-0-0-0-0-0--
b-/5-5-5-5-5-5-5-/5-5-5-5-5-5-5--
g--------------------------------
d--------------------------------
a--------------------------------
e--------------------------------


Guitar solo 2   w/wah

e-----12-----------12-----------12-----------12-----------12-
b-15b----15p12-15b----15p12-15b----15p12-15b----15p12-15b----
g------------------------------------------------------------
d------------------------------------------------------------
a------------------------------------------------------------
e------------------------------------------------------------


e-----------12-----------12-----------12-----------12-----------12-
b-15p12-15b----15p12-15b----15p12-15b----15p12-15b----15p12-15b----
g------------------------------------------------------------------
d------------------------------------------------------------------
a------------------------------------------------------------------
e------------------------------------------------------------------


e-----------12-----------12-----------12-----------12-----------12-
b-15p12-15b----15p12-15b----15p12-15b----15p12-15b----15p12-15b----
g------------------------------------------------------------------
d------------------------------------------------------------------
a------------------------------------------------------------------
e------------------------------------------------------------------


e-----------12-------15b--15-14-12----12-14-------------------
b-15p12-15b----15p12---------------15-------15-12-------------
g-------------------------------------------------15-14-12----
d----------------------------------------------------------14-
a-------------------------------------------------------------
e-------------------------------------------------------------


e---------------------------------------------------------------
b---------------------------------------------------------------
g-14-12---------------------------------------------------------
d-------14-12---------------------------------------------------
a-------------14-13-12-10~----13-12-9-----13-12-10----10-12b-10-
e--------------------------12---------12~----------12-----------


e----------------------------------------------------------------
b----------------------------------12-15-15b(r)-15b~15b~15b~15b~-
g----------------------------------------------------------------
d----------------------------12-14-------------------------------
a----10-12----------10-12/14-------------------------------------
e-12-------12-10-12----------------------------------------------

                                                 hold____|
e-----------------------------------------------------------
b-17b~17b~17b~17b~--18b~18b~20b~20b~-22b~22b~22b~22b-22-22--
g-----------------------------------------------------------
d-----------------------------------------------------------
a-----------------------------------------------------------
e-----------------------------------------------------------


play this over and over 16 times until the end
  hold______________|
e-----------------------
b-22b-22-22-22-22-22r---
g-----------------------
d-----------------------
a-----------------------
e-----------------------


 end: high e is the end of the solo

e--12-------
b-----------
g-----------
d--2--------
a--2--------
e--0--------


ok personally I think it sounds more accurate at the 24th fret.
but I'm just going by what the book says.  here is how i play it:


  ~~~~~~~~~~~~~~~~~
e--------------------
b-24-24-24-24-24-24--
g--------------------
d--------------------
a--------------------
e--------------------


well thats it for the Tantric section. 
HUGE thanks to J.B. for making this what it is
all these tabs are his..............


trevor jones
            
Submit corrections



        Inside Your Head lessons Hard to play? Try these video lessons and learn fast Inside Your Head lessons
        
↑ Back to top | Tablatures and chords for acoustic guitar and electric guitar, ukulele, drums are parodies/interpretations of the original songs. You may use it for private study, scholarship, research or language learning purposes only