» » »

Tantric - After We Go Tabs

Artists:  A B C D E F G H I J K L M N O P Q R S T U V W X Y Z # 

After We Go Tabs

(ver. 1) Click to play this song!
Tantric
 Rating:
4/5 (4 votes)
                Band - Tantric
Song - After We Go

Guitar 1 : electric, Half-Step Down Drop D
Guitar 2 : acoustic, Half-Step Down

Intro (guitar 1):
|-------------------------------|
|-------------------------------|
|-------------------------------|
|--2-2-2-0-0-0-5-5-5-0-0-0-7-0--|
|--2-2-2-0-0-0-5-5-5-0-0-0-7-0--|
|--2-2-2-0-0-0-5-5-5-0-0-0-7-0--|

Verse (guitar 1, clean/delay):
|----------5-5-5-5--------------------------8/10----------------------|
|-------------------------------------------------8--10---------------|
|------------------7-7-7---------------------------------5-5-5/7-7-7--|
|----7---------------------5-5-5-------10-----------------------------|
|--5---5-----------------------------8---8----------------------------|
|---------------------------------------------------------------------|

Chorus (guitar 1, distortion):
|-----------------------------------|
|-----------------------------------|
|-----------------------------------|
|--5-5-5-5-7-7-7-7-9-9-9-9-2-2-2-2--|
|--5-5-5-5-7-7-7-7-9-9-9-9-2-2-2-2--|
|--5-5-5-5-7-7-7-7-9-9-9-9-2-2-2-2--|

(guitar 2)
   Gb      Ab      Bb      Eb
|--3-----------------------0--|
|--3-------2-------4-------0--|
|--0-------2-------4-------1--|
|--0-------2-------4-------2--|
|--2-------0-------2-------2--|
|--3-----------------------0--|

The solo is playing around these 2 notes:
|--------|
|--------|
|--2--4--|
|--------|
|--------|
|--------|
            
Submit corrections

↑ Back to top | Tablatures and chords for acoustic guitar and electric guitar, ukulele, drums are parodies/interpretations of the original songs. You may use it for private study, scholarship, research or language learning purposes only