» » »

Tanooki Suit - Lordvessel Tabs

Artists:  A B C D E F G H I J K L M N O P Q R S T U V W X Y Z # 

Lordvessel Tabs

(ver. 1) Click to play this song!
Tanooki Suit
 Rating:
2.6/5 (23 votes)

 Lordvessel  lessons Tabs too difficult? Try these video lessons and learn fast
 
                (INTRO)x2
D#|--------------------------------------------------------------------10---12-|
A#|--------------------------------8-----8-7-------------------------8----8----|
F#|----------------------------7-5-----------7-9-------------------------------|
C#|-----5---4-5-4-------5---4-5--------9---------9-9-10-9-------9-10-----------|
G#|-0-3---3---------7\3---3----------7--------------------10-10----------------|
C#|----------------------------------------------------------------------------|

(VERSE 1)x4
D#|-----------------------------------------------------------------------------|
A#|-----------------------------------------------------------------------------|
F#|---------11--------12--------7------9---------7--------5-------4-------------|
C#|-------9--------9---------9------9---------5--------5-------------5-----4-5-7|
G#|-7-7-7--7--7-7-7--7--7-7-7--7-7-7--7--3-3-3—-3--3-3-3--3--3-3-3--3-----------|
C#|-------------------------------------------------------------------5-5-5-----|
   Pm---------------------------------------------------------------------------
(PRE-CHORUS)
D#--10-------10-------10-------7------10------10-----5-bend for 1 full note
A#---8--------8--------8-------7-------8-------8-----8-bend for 1 full note
F#---7--------7--------7-------7-------7-------7-----7-bend for 1 full note
C#-------------------------------9------------------------
G#--------------------------------------------------------
C#--------------------------------------------------------

(CHORUS)x4
D#--7------------7---------5-----------------5------------
A#-----8-------------8-----------8-----------------8------
F#---------7b--------------------------7------------------7
C#---------------------------------------------------------
G#---------------------------------------------------------
C#---------------------------------------------------------

(RANDOM)
D#--10/------22--------22--------22--------22------19-------19
A#------------------------------------------------------------
F#------------------------------------------------------------
C#------------------------------------------------------------
G#------------------------------------------------------------
C#------------------------------------------------------------
(verse 2)                                  x3
D#-20-20-20-19-19-19-17| ------------------------------------------15-14-----
A#---------------------|-12-0-8-0-5b/8-0-7-0-8-0---0-8-0-7-0-10-0------15-12
F#---------------------|------------------------7-9-------------------------
C#---------------------|---------------------------------------------------- 
G#---------------------|----------------------------------------------------
C#---------------------|----------------------------------------------------
D#--------15-0-14-0------------15-0-14-0—-12—-12--12--12
A#-12-15-0---------15-0-12-15-0---------15—-15--15—-15—
F#-----------------------------------------------------
C#-----------------------------------------------------
G#-----------------------------------------------------
C#-----------------------------------------------------
    X2
D#-2----2-----3----3-----7-----7-----8--10--10---2-----2----3-----3-
A#--3--3--3--3—3—-3—-3—-3—-8—-8—-8—-8—-8—--8—-8----3—-3—3—-3—-3—-3--
F#------------------------------------------------------------------
C#------------------------------------------------------------------
G#------------------------------------------------------------------
C#------------------------------------------------------------------
  Pm----------------------------------------------------
D#-0-------|
A#-5----7--|
F#----5---5|
C#---------|
G#---------|
C#---------|

D#-12hhhhhhhhhhhhhh—15-14-------------7----10
A#-15hhhhhhhhhhhhhh-------15—12hhhhhh-8-----8
F#-------------------------------------------
C#-------------------------------------------
G#-------------------------------------------
C#-------------------------------------------
	X2
D#-12-12-12-15-15—15-14-14-14--------|
A#---------------------------15-15-15|
F#-----------------------------------|
C#-----------------------------------|
G#-----------------------------------|
C#-----------------------------------|

D#-19-12-15-20-15-12-19-12-15-17-15-12-11bh
A#---------------------------------------
F#---------------------------------------
C#---------------------------------------
G#---------------------------------------
C#---------------------------------------




(CHORUS)
(If only I could be so grossly?????..)
D#-----------------------------------------------------------------10--12
A#--------------------------------8---8-7------------------------8---8---
F#---------------------------7—5---------7-9-----------------------------
C#---5---4-5-4---------5—4-5---------9------9—9—10—9--------9-10---------
G#-3---3------5-----7/3—3-----------7----------------10---10-------------
C#-----------------------------------------------------------------------

		(x3)						
D#---------------15-14---------|-------------15-14—-12--12
A#-------12-15-12-----15---15--|-----12-15-12-----15—15---
F#-----12---------------16---16|---12--------------------- x2 this whole thing
C#-9b12------------------------|9b12----------------------
G#-----------------------------|--------------------------
C#-----------------------------|--------------------------
	X2				then play
D#-14-15-14------17-15-14—14-15|-17-17-17-14-14-14-15-15-15--------|
A#---------15—15---------15----|---------------------------17-17-17|
F#-----------16----------------|-----------------------------------|
C#-----------------------------|-----------------------------------| 
G#-----------------------------|-----------------------------------|
C#-----------------------------|-----------------------------------| x4 whole thing
            
Submit corrections


        Lordvessel  lessons Hard to play? Try these video lessons and learn fast Lordvessel  lessons
        
↑ Back to top | Tablatures and chords for acoustic guitar and electric guitar, ukulele, drums are parodies/interpretations of the original songs. You may use it for private study, scholarship, research or language learning purposes only