Home » T » Tancred »

Tancred - Radio Tabs

Artists:  A B C D E F G H I J K L M N O P Q R S T U V W X Y Z # 

Radio Tabs

(ver. 1) Click to play this song!
Tancred
Tuning: DADF#Be


Verse (x4)

 e|----x-------x-------x------------------------|
 B|----0-------0-------0------------------------|
F#|----0-------0-------0------------------------|
 D|----4-------0-------0------------------------|
 A|----5-------7-------5------------------------|
 D|----0-------7-------5------------------------|

 e|----x-------x-------x------------------------|
 B|----0-------0-------0------------------------|
F#|----0-------0-------0------------------------|
 D|----4-------0-------0------------------------|
 A|----5-------4-------5------------------------|
 D|----0-------7-------5------------------------|

Bridge (x4)

 e|------------------------------------------------|
 B|------------------------------------------------|
F#|------------------------------------------------|
 D|------------------------------------------------|
 A|--7-7-7---9-9---4-4-4---2-2---------------------|
 D|--0-0-0---0-0---4-4-4---0-0---------------------|


 e|------------------------------------------------|
 B|------------------------------------------------|
F#|------------------------------------------------|
 D|------------------------------------------------|
 A|--7-7-7---9-9---5-5-5---4-4---------------------|
 D|--0-0-0---0-0---5-5-5---5-5---------------------|


Verse (x4)

 e|----x-------x-------x------------------------|
 B|----0-------0-------0------------------------|
F#|----0-------0-------0------------------------|
 D|----4-------0-------0------------------------|
 A|----5-------7-------5------------------------|
 D|----0-------7-------5------------------------|

 e|----x-------x-------x------------------------|
 B|----0-------0-------0------------------------|
F#|----0-------0-------0------------------------|
 D|----4-------0-------0------------------------|
 A|----5-------4-------5------------------------|
 D|----0-------7-------5------------------------|            
Submit corrections

↑ Back to top | Tablatures and chords for acoustic guitar and electric guitar, ukulele, drums are parodies/interpretations of the original songs. You may use it for private study, scholarship, research or language learning purposes only