» » »

Tally Hall - Be Born Tabs

Artists:  A B C D E F G H I J K L M N O P Q R S T U V W X Y Z # 

Be Born Tabs

(ver. 2) Click to play this song!
Tally Hall
 Rating:
4.4/5 (14 votes)

 Be Born lessons Tabs too difficult? Try these video lessons and learn fast
 
                [Intro]

  1 + 2 + 3 + 4 + |1 + 2 + 3 + 4 + |1 + 2 + 3 + 4 + |1 + 2 + 3 + 4 + |
e|----------------|------1---------|--------------o-|------3---------|
B|--------------o-|----3-----o---1-|------1-----1---|----1-----1-----|
G|------o-----o---|----o-------o---|----o-------o---|----o-------o-o-|
D|----o-------o---|----o-------o---|----2---oh2-2---|----2-------2---|
A|----2---oh2-2---|----2-------2---|3---3-------3---|3---3-------3---|
E|3---3-------3---|3---3-------3---|----------------|----------------|

                                      Ending 1
  1 + 2 + 3 + 4 + |1 + 2 + 3 + 4 + ||1 + 2 + 3 + 4 + |1 + 2 + 3 + 4 + |
e|------3---------|------o---------||----2-2-----2-2-|----2-2---------|
B|----3-----------|--------------1-||----3-----3-3---|----3-----------|
G|----o-----o---o-|----o-----o-----||----2-------2---|----2-----2-----|
D|----o-------o---|----2-------2---||o---o-------o---|o---o-----------|
A|----2-------2---|----2-------2---||----------------|----------------|
E|3---3-------3---|o---o-------o---||----------------|------------3---|

[1st Verse] ("You seem like you're quite content...")

  1 + 2 + 3 + 4 + |1 + 2 + 3 + 4 + |1 + 2 + 3 + 4 + |1 + 2 + 3 + 4 + |
e|----------------|------1---------|--------------o-|------3---------|
B|--------------o-|----3-----o---1-|------1-----1---|----1-----1-----|
G|------o-----o---|----o-------o---|----o-------o---|----o-------o-o-|
D|----o-------o---|----o-------o---|----2---oh2-2---|----2-------2---|
A|----2---oh2-2---|----2-------2---|3---3-------3---|3---3-------3---|
E|3---3-------3---|3---3-------3---|----------------|----------------|

                                      Ending 1
  1 + 2 + 3 + 4 + |1 + 2 + 3 + 4 + ||1 + 2 + 3 + 4 + |1 + 2 + 3 + 4 + |
e|------3---------|------o---------||----2-2-----2-2-|----2-2---------|
B|----3-----------|--------------1-||----3-----3-3---|----3-----------|
G|----o-----o---o-|----o-----o-----||----2-------2---|----2-----2-----|
D|----o-------o---|----2-------2---||o---o-------o---|o---o-----------|
A|----2-------2---|----2-------2---||----------------|----------------|
E|3---3-------3---|o---o-------o---||----------------|------------3---|

[2nd Verse] ("You can't stay forever young...")

  1 + 2 + 3 + 4 + |1 + 2 + 3 + 4 + |1 + 2 + 3 + 4 + |1 + 2 + 3 + 4 + |
e|----------------|------1---------|--------------o-|------3---------|
B|--------------o-|----3-----o---1-|------1-----1---|----1-----1-----|
G|------o-----o---|----o-------o---|----o-------o---|----o-------o-o-|
D|----o-------o---|----o-------o---|----2---oh2-2---|----2-------2---|
A|----2---oh2-2---|----2-------2---|3---3-------3---|3---3-------3---|
E|3---3-------3---|3---3-------3---|----------------|----------------|

                                      Ending 2
  1 + 2 + 3 + 4 + |1 + 2 + 3 + 4 + ||1 + 2 + 3 + 4 + |1 + 2 + 3 + 4 + |
e|------3---------|------o---------||----2-2---------|----------------|
B|----3-----------|--------------1-||----3-----3-----|------3---------|
G|----o-----o---o-|----o-----o-----||----2---------o-|----2-----2---o-|
D|----o-------o---|----2-------2---||o---o-------o---|----o-------o---|
A|----2-------2---|----2-------2---||----------------|----------------|
E|3---3-------3---|o---o-------o---||----------------|3---------------|

[3rd Verse] ("I was in your shoes...")

  1 + 2 + 3 + 4 + |1 + 2 + 3 + 4 + |1 + 2 + 3 + 4 + |1 + 2 + 3 + 4 + |
e|----------------|------1---------|--------------o-|------3---------|
B|--------------o-|----3-----o---1-|------1-----1---|----1-----1-----|
G|------o-----o---|----o-------o---|----o-------o---|----o-------o-o-|
D|----o-------o---|----o-------o---|----2---oh2-2---|----2-------2---|
A|----2---oh2-2---|----2-------2---|3---3-------3---|3---3-------3---|
E|3---3-------3---|3---3-------3---|----------------|----------------|

                                      Ending 1
  1 + 2 + 3 + 4 + |1 + 2 + 3 + 4 + ||1 + 2 + 3 + 4 + |1 + 2 + 3 + 4 + |
e|------3---------|------o---------||----2-2-----2-2-|----2-2---------|
B|----3-----------|--------------1-||----3-----3-3---|----3-----------|
G|----o-----o---o-|----o-----o-----||----2-------2---|----2-----2-----|
D|----o-------o---|----2-------2---||o---o-------o---|o---o-----------|
A|----2-------2---|----2-------2---||----------------|----------------|
E|3---3-------3---|o---o-------o---||----------------|------------3---|

[4th Verse] ("There's a dozen...")

  1 + 2 + 3 + 4 + |1 + 2 + 3 + 4 + |1 + 2 + 3 + 4 + |1 + 2 + 3 + 4 + |
e|----------------|------1---------|--------------o-|------3---------|
B|--------------o-|----3-----o---1-|------1-----1---|----1-----1-----|
G|------o-----o---|----o-------o---|----o-------o---|----o-------o-o-|
D|----o-------o---|----o-------o---|----2---oh2-2---|----2-------2---|
A|----2---oh2-2---|----2-------2---|3---3-------3---|3---3-------3---|
E|3---3-------3---|3---3-------3---|----------------|----------------|

                                      Ending 3
  1 + 2 + 3 + 4 + |1 + 2 + 3 + 4 + ||1 + 2 + 3 + 4 + |1 + 2 + 3 + 4 + |
e|------3---------|------o---------||----2-2---------|----------------|
B|----3-----------|--------------1-||----3-----3-----|------3-------3-|
G|----o-----o---o-|----o-----o-----||----2---------o-|----o-----o-----|
D|----o-------o---|----2-------2---||o---o-------o---|----o-------o---|
A|----2-------2---|----2-------2---||----------------|----2-------2---|
E|3---3-------3---|o---o-------o---||----------------|3---3-------3---|


[Chorus] (“what if I had told you…”)

  1 + 2 + 3 + 4 + |1 + 2 + 3 + 4 + |1 + 2 + 3 + 4 + |1 + 2 + 3 + 4 + |
e|----------------|------o-------o-|------o-------o-|----------------|
B|------3-------3-|----------3-----|----------3-----|------3-------3-|
G|--o-------o-----|--o---------o---|--o---------o---|--o-------o-----| x2
D|----2-------2---|----o-----------|----o-----------|----2-------2---| 
A|3---------------|2---------------|o---------------|2---------------|
E|----------------|----------------|----------------|----------------|

(“follow my instructions…”)

1 + 2 + 3 + 4 + |1 + 2 + 3 + 4 + |1 + 2 + 3 + 4 + |1 + 2 + 3 + 4 + |
e|----------------|------o-------o-|------o-------o-|----------------|
B|------3-------3-|----------3-----|----------3-----|------3-------o-|
G|--o-------o-----|--o---------o---|--o---------o---|--o-------o-----|
D|----2-------2---|----o-----------|----o-----------|----2-------2---| 
A|3---------------|2---------------|o---------------|2---------------|
E|----------------|----------------|----------------|----------------|

(“of my voice, hear my voice…”)

  1 + 2 + 3 + 4 + |1 + 2 + 3 + 4 + |1 + 2 + 3 + 4 + |1 + 2 + 3 + 4 + |
e|------o---------|----------------|----------------|------3---------|
B|----3-----3---3-|------3-------o-|------3---------|----3-----------|
G|------------o---|----o-----o-----|----o-----o---1-|----------o---o-|
D|----------------|------------o---|------------2---|------------o---|
A|----------------|2---------------|3---------------|----------------|
E|o---------------|----------------|----------------|3---------------|

  1 + 2 + 3 + 4 + |1 + 2 + 3 + 4 + |1 + 2 + 3 + 4 + |1 + 2 + 3 + 4 + |
e|------o---------|----------------|----------------|----------------|
B|----3-----3---3-|------3-------o-|------3---------|----------------|
G|------------o---|----o-----o-----|----o-----o---1-|----------------|
D|----------------|------------o---|------------2---|----------------|
A|----------------|2---------------|3---------------|----------------|
E|o---------------|----------------|----------------|3---------------|

[Instrumental]

  1 + 2 + 3 + 4 + |1 + 2 + 3 + 4 + |1 + 2 + 3 + 4 + |1 + 2 + 3 + 4 + |
e|----------------|------1---------|--------------o-|------3---------|
B|--------------o-|----3-----o---1-|------1-----1---|----1-----1-----|
G|------o-----o---|----o-------o---|----o-------o---|----o-------o-o-|
D|----o-------o---|----o-------o---|----2---oh2-2---|----2-------2---|
A|----2---oh2-2---|----2-------2---|3---3-------3---|3---3-------3---|
E|3---3-------3---|3---3-------3---|----------------|----------------|

                                      Ending 1
  1 + 2 + 3 + 4 + |1 + 2 + 3 + 4 + ||1 + 2 + 3 + 4 + |1 + 2 + 3 + 4 + |
e|------3---------|------o---------||----2-2-----2-2-|----2-2---------|
B|----3-----------|--------------1-||----3-----3-3---|----3-----------|
G|----o-----o---o-|----o-----o-----||----2-------2---|----2-----2-----|
D|----o-------o---|----2-------2---||o---o-------o---|o---o-----------|
A|----2-------2---|----2-------2---||----------------|----------------|
E|3---3-------3---|o---o-------o---||----------------|------------3---|

  1 + 2 + 3 + 4 + |1 + 2 + 3 + 4 + |1 + 2 + 3 + 4 + |1 + 2 + 3 + 4 + |
e|----------------|------1---------|--------------o-|------3---------|
B|--------------o-|----3-----o---1-|------1-----1---|----1-----1-----|
G|------o-----o---|----o-------o---|----o-------o---|----o-------o-o-|
D|----o-------o---|----o-------o---|----2---oh2-2---|----2-------2---|
A|----2---oh2-2---|----2-------2---|3---3-------3---|3---3-------3---|
E|3---3-------3---|3---3-------3---|----------------|----------------|

                                      Ending 2
  1 + 2 + 3 + 4 + |1 + 2 + 3 + 4 + ||1 + 2 + 3 + 4 + |1 + 2 + 3 + 4 + |
e|------3---------|------o---------||----2-2---------|----------------|
B|----3-----------|--------------1-||----3-----3-----|------3---------|
G|----o-----o---o-|----o-----o-----||----2---------o-|----2-----2---o-|
D|----o-------o---|----2-------2---||o---o-------o---|----o-------o---|
A|----2-------2---|----2-------2---||----------------|----------------|
E|3---3-------3---|o---o-------o---||----------------|3---------------|

[5th Verse] ("You think that you've seen it all...")

  1 + 2 + 3 + 4 + |1 + 2 + 3 + 4 + |1 + 2 + 3 + 4 + |1 + 2 + 3 + 4 + |
e|----------------|------1---------|--------------o-|------3---------|
B|--------------o-|----3-----o---1-|------1-----1---|----1-----1-----|
G|------o-----o---|----o-------o---|----o-------o---|----o-------o-o-|
D|----o-------o---|----o-------o---|----2---oh2-2---|----2-------2---|
A|----2---oh2-2---|----2-------2---|3---3-------3---|3---3-------3---|
E|3---3-------3---|3---3-------3---|----------------|----------------|

                                      Ending 1
  1 + 2 + 3 + 4 + |1 + 2 + 3 + 4 + ||1 + 2 + 3 + 4 + |1 + 2 + 3 + 4 + |
e|------3---------|------o---------||----2-2-----2-2-|----2-2---------|
B|----3-----------|--------------1-||----3-----3-3---|----3-----------|
G|----o-----o---o-|----o-----o-----||----2-------2---|----2-----2-----|
D|----o-------o---|----2-------2---||o---o-------o---|o---o-----------|
A|----2-------2---|----2-------2---||----------------|----------------|
E|3---3-------3---|o---o-------o---||----------------|------------3---|

[6th Verse] ("Long and hard...")

  1 + 2 + 3 + 4 + |1 + 2 + 3 + 4 + |1 + 2 + 3 + 4 + |1 + 2 + 3 + 4 + |
e|----------------|------1---------|--------------o-|------3---------|
B|--------------o-|----3-----o---1-|------1-----1---|----1-----1-----|
G|------o-----o---|----o-------o---|----o-------o---|----o-------o-o-|
D|----o-------o---|----o-------o---|----2---oh2-2---|----2-------2---|
A|----2---oh2-2---|----2-------2---|3---3-------3---|3---3-------3---|
E|3---3-------3---|3---3-------3---|----------------|----------------|

                                      Ending 3
  1 + 2 + 3 + 4 + |1 + 2 + 3 + 4 + ||1 + 2 + 3 + 4 + |1 + 2 + 3 + 4 + |
e|------3---------|------o---------||----2-2---------|----------------|
B|----3-----------|--------------1-||----3-----3-----|------3-------3-|
G|----o-----o---o-|----o-----o-----||----2---------o-|----o-----o-----|
D|----o-------o---|----2-------2---||o---o-------o---|----o-------o---|
A|----2-------2---|----2-------2---||----------------|----2-------2---|
E|3---3-------3---|o---o-------o---||----------------|3---3-------3---|

[Repeat Chorus]

[Bridge]
  1 + 2 + 3 + 4 + |1 + 2 + 3 + 4 + |1 + 2 + 3 + 4 + |1 + 2 + 3 + 4 + |
e|------3---------|----------------|------o---------|------o---------|
B|--3-------3---3-|--3---2-----3---|----------1---1-|----------1---1-|
G|----2-------2---|----2-----------|--o---------o---|--o---------o---|
D|o---------------|----------o-----|----2-----------|----2-----------|
A|----------------|----------------|3---------------|3---------------|
E|----------------|----------------|----------------|----------------|

  1 + 2 + 3 + 4 + |1 + 2 + 3 + 4 + |1 + 2 + 3 + 4 + |1 + 2 + 3 + 4 + |
e|----------------|------3---------|------3---------|----------------|
B|------4-------4-|----------------|--3-------3-----|------3-------3-|
G|--5-------5-----|--5-------5-----|----o-------o---|----2-----2-----|
D|----5-------5---|----5-------5---|----------------|------------o---|
A|3---------------|----------------|----------------|o---------------|
E|----------------|----------------|3---------------|----------------|

  1 + 2 + 3 + 4 + |1 + 2 + 3 + 4 + |1 + 2 + 3 + 4 + |1 + 2 + 3 + 4 + |
e|------3---------|----------------|------o---------|------o---------|
B|--3-------3---3-|--3---2-----3---|----------1---1-|----------1---1-|
G|----2-------2---|----2-----------|--o---------o---|--o---------o---|
D|o---------------|----------o-----|----2-----------|----2-----------|
A|----------------|----------------|3---------------|3---------------|
E|----------------|----------------|----------------|----------------|

  1 + 2 + 3 + 4 + |1 + 2 + 3 + 4 + |1 + 2 + 3 + 4 + |1 + 2 + 3 + 4 + |
e|----------------|------3---------|------3---------|------3-------3-|
B|------4-------4-|----------------|--3-------3-----|--3-------3-----|
G|--5-------5-----|--5-------5-----|----o-------o---|----2-------2---|
D|----5-------5---|----5-------5---|----------------|o---------------|
A|3---------------|----------------|----------------|----------------|
E|----------------|----------------|3---------------|----------------|

  1 + 2 + 3 + 4 + |1 + 2 + 3 + 4 + |1 + 2 + 3 + 4 + |
e|------3-------3-|------3-------3-|------3-------3-|
B|--3-------3-----|--3-------3-----|--3-------3-----|
G|----2-------2---|----2-------2---|----2-------2---|
D|o---------------|o---------------|o---------------|
A|----------------|----------------|----------------|
E|----------------|----------------|----------------|


[Final Ending] (Tempo slows, becomes more inaccurate towards end)

  1 + 2 + 3 + 4 + |1 + 2 + 3 + 4 + |1 + 2 + 3 + 4 + |1 + 2 + 3 + 4 + |
e|------o---------|----------------|----------------|--------1-------|
B|----------o---o-|------3---------|------1---------|--------1-------|
G|----o-------o---|----o-----o---o-|----o-----------|--------o-------|
D|----2-----------|----2-------2---|----2-----------|--------o-------|
A|----2-----------|2---2-----------|3---3---3---2---|o-------2-------|
E|o---o-----------|----------------|----------------|--------3-------|            
Submit corrections


        Be Born lessons Hard to play? Try these video lessons and learn fast Be Born lessons
        
↑ Back to top | Tablatures and chords for acoustic guitar and electric guitar, ukulele, drums are parodies/interpretations of the original songs. You may use it for private study, scholarship, research or language learning purposes only