Home » T » Talk Show »

Talk Show - Peeling An Orange Bass

Artists:  A B C D E F G H I J K L M N O P Q R S T U V W X Y Z # 

Peeling An Orange Bass

(ver. 1) Click to play this song!
Talk Show
[Verse]

   1  2  3   4   1   2  3   4    1  2  3    4   1    2    3   4    1  2  3   4  
G|-------4-4----|--------------|---------------|------------------|--------------|
D|------4----4--|-------6-6----|---------------|------------4-5-6-|7--7--7-6--5--|
A|-2--2---------|------6----6-5|-4--4--4--4-6-7|---7-7----7-------|--------------|
E|-------------4|--4-4---------|------4--------|--------7---------|--------------|

  1  2  3    4    1  2  3   4    1  2  3   4    
G|-------------|---------------|---------------|
D|-5-5--5-5-/7-|-/9--9--9-9-7-9|--9-9--9-9-4-4-|
A|-------------|---------------|------9--------|
E|-------------|---------------|---------------|

   1  2  3   4   1   2  3   4    1  2  3    4   1    2    3   4    1  2  3   4  
G|-------4-4----|--------------|---------------|------------------|--------------|
D|------4----4--|-------6-6----|---------------|------------4-5-6-|7--7--7-6--5--|
A|-2--2---------|------6----6-5|-4--4--4--4-6-7|---7-7----7-------|--------------|
E|-------------4|--4-4---------|------4--------|--------7---------|--------------|

  1  2  3    4    1  2  3   4    1  2  3   4    
G|-------------|---------------|---------------|
D|-5-5--5-5-/7-|-/9--9--9-9-7-9|--9-9--9-9-9/--| 
A|-------------|---------------|------9--------|
E|-------------|---------------|---------------| 


[Chorus]

G|---------------|-------------|--------------|---------------------------------|
D|---------------|-------------|--------------|---------------------------------| 
A|---------------|-------------|--------------|---------------------------------|
E|-2--2--2-2-4-5-|-5-5--5-5-/7-|/0--0--0-0--4-|-5-5-4-4-5-5-4-------------------|

G|---------------|-------------|--------------|---------------------------------|
D|---------------|-------------|--------------|---------------------------------| 
A|---------------|-------------|--------------|---------------7--6--5-----------|
E|-2--2--2-2-4-5-|-5-5--5-5-/7-|/0--0--0-0--4-|-5-5-4-4-5-5-4-------------------|


[Verse]

   1  2  3   4   1   2  3   4    1  2  3    4   1    2    3   4    1  2  3   4  
G|-------4-4----|--------------|---------------|------------------|--------------|
D|------4----4--|-------6-6----|---------------|------------4-5-6-|7--7--7-6--5--|
A|-2--2---------|------6----6-5|-4--4--4--4-6-7|---7-7----7-------|--------------|
E|-------------4|--4-4---------|------4--------|--------7---------|--------------|

  1  2  3    4    1  2  3   4    1  2  3   4    
G|-------------|---------------|---------------|
D|-5-5--5-5-/7-|-/9--9--9-9-7-9|--9-9--9-9-4-4-|
A|-------------|---------------|------9--------|
E|-------------|---------------|---------------|

   1  2  3   4   1   2  3   4    1  2  3    4   1    2    3   4    1  2  3   4  
G|-------4-4----|--------------|---------------|------------------|--------------|
D|------4----4--|-------6-6----|---------------|------------4-5-6-|7--7--7-6--5--|
A|-2--2---------|------6----6-5|-4--4--4--4-6-7|---7-7----7-------|--------------|
E|-------------4|--4-4---------|------4--------|--------7---------|--------------|

  1  2  3    4    1  2  3   4    1  2  3   4    
G|-------------|---------------|---------------|
D|-5-5--5-5-/7-|-/9--9--9-9-7-9|--9-9--9-9-9/--| 
A|-------------|---------------|------9--------|
E|-------------|---------------|---------------| 

[Chorus]

G|---------------|-------------|--------------|---------------------------------|
D|---------------|-------------|--------------|---------------------------------| 
A|---------------|-------------|--------------|---------------------------------|
E|-2--2--2-2-4-5-|-5-5--5-5-/7-|/0--0--0-0--4-|-5-5-4-4-5-5-4-------------------|

G|---------------|-------------|--------------|---------------------------------|
D|---------------|-------------|--------------|---------------------------------| 
A|---------------|-------------|--------------|---------------7--6--5-----------|
E|-2--2--2-2-4-5-|-5-5--5-5-/7-|/0--0--0-0--4-|-5-5-4-4-5-5-4-------------------|

[Bridge]                                                    These are on off-beats
                                                                  & 1& 2& 3&
G|---------------|-------------|------|-------------|--------------|-------------|
D|-------------/8|--8--6-6--6--|4-4-4-|-4-4--4------|--------------|-------------|
A|---------3-6---|-------------|------|--------6-6--|4--4--4-4-4--6|-7--9--11----|
E|-4--4--4-------|-------------|------|-------------|--------------|-------------|

G|--------------|-------------------------------------------------------------|
D|--------------|-------------------------------------------------------------|
A|-12--12--12--0|-0--12--12-12--0--12-----------------------------------------| x2
E|--------------|-------------------------------------------------------------|

[Verse]

   1  2  3   4   1   2  3   4    1  2  3    4   1    2    3   4    1  2  3   4  
G|-------4-4----|--------------|---------------|------------------|--------------|
D|------4----4--|-------6-6----|---------------|------------4-5-6-|7--7--7-6--5--|
A|-2--2---------|------6----6-5|-4--4--4--4-6-7|---7-7----7-------|--------------|
E|-------------4|--4-4---------|------4--------|--------7---------|--------------|

  1  2  3    4    1  2  3   4    1  2  3   4    
G|-------------|---------------|---------------|
D|-5-5--5-5-/7-|-/9--9--9-9-7-9|--9-9--9-9-4-4-|
A|-------------|---------------|------9--------|
E|-------------|---------------|---------------|

   1  2  3   4   1   2  3   4    1  2  3    4   1    2    3   4    1  2  3   4  
G|-------4-4----|--------------|---------------|------------------|--------------|
D|------4----4--|-------6-6----|---------------|------------4-5-6-|7--7--7-6--5--|
A|-2--2---------|------6----6-5|-4--4--4--4-6-7|---7-7----7-------|--------------|
E|-------------4|--4-4---------|------4--------|--------7---------|--------------|

  1  2  3    4    1  2  3   4    1  2  3   4    
G|-------------|---------------|---------------|
D|-5-5--5-5-/7-|-/9--9--9-9-7-9|--9-9--9-9-9/--| 
A|-------------|---------------|------9--------|
E|-------------|---------------|---------------| 

[Chorus]

G|---------------|-------------|--------------|---------------------------------|
D|---------------|-------------|--------------|---------------------------------| 
A|---------------|-------------|--------------|---------------------------------|
E|-2--2--2-2-4-5-|-5-5--5-5-/7-|/0--0--0-0--4-|-5-5-4-4-5-5-4-------------------|

G|---------------|-------------|--------------|---------------------------------|
D|---------------|-------------|--------------|---------------------------------| 
A|---------------|-------------|--------------|---------------7--6--5-----------|
E|-2--2--2-2-4-5-|-5-5--5-5-/7-|/0--0--0-0--4-|-5-5-4-4-5-5-4-------------------|
            
Submit corrections

↑ Back to top | Tablatures and chords for acoustic guitar and electric guitar, ukulele, drums are parodies/interpretations of the original songs. You may use it for private study, scholarship, research or language learning purposes only