Home » T » Talking Heads »

Talking Heads - Road To Nowhere Bass

Artists:  A B C D E F G H I J K L M N O P Q R S T U V W X Y Z # 

Road To Nowhere Bass

(ver. 2) Click to play this song!
Talking Heads
Intro/Verse: (Vocals Only No Bass)
 
G|------------------------------------------------------------------------|
D|------------------------------------------------------------------------|
A|-2/7--7-7-7--7-7-7-7-7-7-7---7-7-7--7-7-7--7-7-7-7-7-7-7---7-7-7--7-7-7-|
E|------------------------------------------------------------------------|
 
G|----------------------------------------------|
D|----------------------------------------------|
A|-7-7-7-7-7-7-7---7-7-7--7-7-7---7-7-7-7-7-7-7-|
E|----------------------------------------------|
 
Chorus: (Play All Of Chorus x2)
G|--------------------------------------------------------|
D|--------------------------------------------------------|
A|-7--7-7-7--7-7-7-7-7-7-7---7-7-7--7-7-7---7-7-7-7-7-7-7-|
E|--------------------------------------------------------|
 
G|-------------------------------------------------------|
D|-------------------------------------------------------|
A|-4--4-4-4--4-4-4-4-4-4-4---4-4-4--4-4-4--4-4-4-4-4-4-4-|
E|-------------------------------------------------------|
 
Verse 1:
G|----------------------------------------------------------------|
D|----------------------------------------------------------------|
A|-------------------------------------------------------7--7-7-7-|
E|-5--5-5-5--5-5-5-5-5-5-5---5-5-5--5-5-5--5-5-5-5-5-5-5----------|
 
G|-----------------------------------------------------------------|
D|-----------------------------------------------------------------|
A|-7-7-7-7-7-7-7---------------------------------------------------|
E|---------------7--7-7-7--7-7-7-7-7-7-7---5--5-5-5--5-5-5-5-5-5-5-|
 
G|--------------------------------------------------------------|
D|--------------------------------------------------------------|
A|-----------------------------7--7-7-7--7-7-7-7-7-7-7----------|
E|-5-5-5--5-5-5--5-5-5-5-5-5-5-------------------------7--7-7-7-|
 
G|---------------|
D|---------------|
A|---------------|
E|-7-7-7-7-7-7-7-|
 
Interlude:                               (Play This Bit x2)
G|--------------------------------------------------------|
D|--------------------------------------------------------|
A|-7--7-7-7--7-7-7-7-7-7-7---7-7-7--7-7-7---7-7-7-7-7-7-7-|
E|--------------------------------------------------------|
 
Chorus: (Play All Of Chorus x2)
G|--------------------------------------------------------|
D|--------------------------------------------------------|
A|-7--7-7-7--7-7-7-7-7-7-7---7-7-7--7-7-7---7-7-7-7-7-7-7-|
E|--------------------------------------------------------|
 
G|-------------------------------------------------------|
D|-------------------------------------------------------|
A|-4--4-4-4--4-4-4-4-4-4-4---4-4-4--4-4-4--4-4-4-4-4-4-4-|
E|-------------------------------------------------------|
 
Verse 2:
G|----------------------------------------------------------------|
D|----------------------------------------------------------------|
A|-------------------------------------------------------7--7-7-7-|
E|-5--5-5-5--5-5-5-5-5-5-5---5-5-5--5-5-5--5-5-5-5-5-5-5----------|
 
G|-----------------------------------------------------------------|
D|-----------------------------------------------------------------|
A|-7-7-7-7-7-7-7---------------------------------------------------|
E|---------------7--7-7-7--7-7-7-7-7-7-7---5--5-5-5--5-5-5-5-5-5-5-|
 
G|--------------------------------------------------------------|
D|--------------------------------------------------------------|
A|-----------------------------7--7-7-7--7-7-7-7-7-7-7----------|
E|-5-5-5--5-5-5--5-5-5-5-5-5-5-------------------------7--7-7-7-|
 
G|---------------|
D|---------------|
A|---------------|
E|-7-7-7-7-7-7-7-|
 
Interlude:                               (Play This Bit x2)
G|--------------------------------------------------------|
D|--------------------------------------------------------|
A|-7--7-7-7--7-7-7-7-7-7-7---7-7-7--7-7-7---7-7-7-7-7-7-7-|
E|--------------------------------------------------------|
 
Chorus: (Play All Of Chorus x3)
G|--------------------------------------------------------|
D|--------------------------------------------------------|
A|-7--7-7-7--7-7-7-7-7-7-7---7-7-7--7-7-7---7-7-7-7-7-7-7-|
E|--------------------------------------------------------|
 
G|-------------------------------------------------------|
D|-------------------------------------------------------|
A|-4--4-4-4--4-4-4-4-4-4-4---4-4-4--4-4-4--4-4-4-4-4-4-4-|
E|-------------------------------------------------------|
 
Bridge: (Play All Of Bridge x 8)
G|--------------------------------------------------------|
D|--------------------------------------------------------|
A|-7--7-7-7--7-7-7-7-7-7-7---7-7-7--7-7-7---7-7-7-7-7-7-7-|
E|--------------------------------------------------------|
 
G|-------------------------------------------------------|
D|-------------------------------------------------------|
A|-4--4-4-4--4-4-4-4-4-4-4---4-4-4--4-4-4--4-4-4-4-4-4-4-|
E|-------------------------------------------------------|
 
Chorus: (Play All Of Chorus x2)
G|--------------------------------------------------------|
D|--------------------------------------------------------|
A|-7--7-7-7--7-7-7-7-7-7-7---7-7-7--7-7-7---7-7-7-7-7-7-7-|
E|--------------------------------------------------------|
 
G|-------------------------------------------------------|
D|-------------------------------------------------------|
A|-4--4-4-4--4-4-4-4-4-4-4---4-4-4--4-4-4--4-4-4-4-4-4-4-|
E|-------------------------------------------------------|
 
Outro:
G|--------------------------------------------------------|
D|--------------------------------------------------------|
A|-7--7-7-7--7-7-7-7-7-7-7---7-7-7--7-7-7---7-7-7-7-7-7-7-|
E|--------------------------------------------------------|
 
                                                           END)
G|-------------------------------------------------------------|
D|-------------------------------------------------------------|
A|-4--4-4-4--4-4-4-4-4-4-4---4-4-4--4-4-4--4-4-4-4-4-4-4---7---|
E|-------------------------------------------------------------|
            
Submit corrections

↑ Back to top | Tablatures and chords for acoustic guitar and electric guitar, ukulele, drums are parodies/interpretations of the original songs. You may use it for private study, scholarship, research or language learning purposes only