» » »

Taj Mahal - Johnny Too Bad Tabs

Artists:  A B C D E F G H I J K L M N O P Q R S T U V W X Y Z # 

Johnny Too Bad Tabs

(ver. 1) Click to play this song!
Taj Mahal
 Rating:
4.3/5 (6 votes)

 Johnny Too Bad  lessons Tabs too difficult? Try these video lessons and learn fast
 
                [Melody]

e|---------------------------------------------------------------------------|
B|---------------------------------------------------------------------------|
G|---------------------------------------------------------------------------|
D|---------------------------------------------------------------------------|
A|------6--4--/9--6--6-6--4--4-4----/9--------6----14--16--18----------------|
E|--6h7---------------------------/7-----7-7-9---4-------------7--9/10/11----|

e|---------------------------------------------------------------------------|
B|---------------------------------------------------------------------------|
G|---------------------------------------------------------------------------|
D|---------------------------------------------------------------------------|
A|-----6--4--/9--6--6-6--4--4-4----/9--------6----14--16--18-----------------|
E|--7---------------------------/7-----7-7-9---4-------------7--9/10/11------|            
Submit corrections


        Johnny Too Bad  lessons Hard to play? Try these video lessons and learn fast Johnny Too Bad  lessons
        
↑ Back to top | Tablatures and chords for acoustic guitar and electric guitar, ukulele, drums are parodies/interpretations of the original songs. You may use it for private study, scholarship, research or language learning purposes only