Home » T » Tahsan »

Tahsan - Alo Tabs

Artists:  A B C D E F G H I J K L M N O P Q R S T U V W X Y Z # 

Alo Tabs

(ver. 1) Click to play this song!
Tahsan
Tuning: Standard


Intro:

    E          B       C#m        E        B      C#m       
e|--4------4--------7-----4-------4------4------7----4---------4---------|
B|--5----5-----7--------5---5-----5----5---7-------5---5-----------------|
G|--4--4-------8--8-----6-----6---4--4-----8--8----6-----6---6-----------|
D|-------------9--------6------------------9-------6-------6-------------|
A|--7----------9--------4---------7--------9-------4---------------------|
E|-----------------------------------------------------------------------|
  

        C#m   G#m    A           C#m   G#m  A
e|------------------------------------------5----------------------------|
B|--4h5-5-5-----4------5---------5--5---4---5----------------------------|
G|------6-6---4---4--6---6-------6--6---4---6----------------------------|
D|------6-6---6------7-----7-----6--6---6---7----------------------------|
A|------4-4---6------7-----------4--4---6---7----------------------------|
E|------------4------5----------------------5----------------------------|
  
Verse 1:

     E        B         C#m     A      E        B          C#m   A 
e|---X--------7----------4------5------X--------7----------4-----5-------|
B|---9--------7----------5------5------9--------7----------5-----5-------|
G|---9--------8----------6------6------9--------8----------6-----6-------|
D|---9--------9----------6------7------9--------9----------6-----7-------|
A|---7--------9----------4------7------7--------9----------4-----7-------|
E|---X--------7----------X------5------X--------7----------X-----5-------|
   Tumi ar to karo nou  shudhu amar, joto dure shore jao, robeh amar

    

     E        B              C#m    A     E         B          C#m    A    
e|---X--------7--------------4------5-----X---------7-----------4-----5-----|
B|---9--------7--------------5------5-----9---------7-----------5-----5-----|
G|---9--------8--------------6------6-----9---------8-----------6-----6-----|
D|---9--------9--------------6------7-----9---------9-----------6-----7-----|
A|---7--------9--------------4------7-----7---------9-----------4-----7-----|
E|---X--------7--------------X------5-----X---------7-----------X-----5-----|
     Stobdho shomoy takeh   dhore rekhe, sriti'r patay  shudhu tumi amar


Pre-Chorus:

     C#m           G#m  A     C#m      G#m   A
e|---4-------------4----5-----4---------4----5-----------------------------------|
B|---5-------------4----5-----5---------4----5-----------------------------------|
G|---6-------------4----6-----6---------4----6-----------------------------------|
D|---6-------------6----7-----6---------6----7-----------------------------------|
A|---4-------------6----7-----4---------6----7-----------------------------------|
E|---X-------------4----5-----X---------4----5-----------------------------------|
     Keno aaj eto  eka ami,  Alo hoye dure tumi


Chorus:

     E        B          C#m        A    E          B           C#m       A
e|---X--------7-----------4---------5----X----------7------------4--------5------| 
B|---9--------7-----------5---------5----9----------7------------5--------5------|  
G|---9--------8-----------6---------6----9----------8------------6--------6------|   ×2 
D|---9--------9-----------6---------7----9----------9------------6--------7------|   
A|---7--------9-----------4---------7----7----------9------------4--------7------|  
E|---X--------7-----------X---------5----X----------7------------X--------5------| 
     Alo alo ami kokhono khuje pabo na, chader alo tumi kokhono amar hobe na


     E            B           C#m
e|---X------------7-----------4-------------------------------------------------|
B|---9------------7-----------5-------------------------------------------------|
G|---9------------8-----------6-------------------------------------------------|
D|---9------------9-----------6-------------------------------------------------|
A|---7------------9-----------4-------------------------------------------------|
E|---X------------7-----------X-------------------------------------------------|
     Hobe na...   Hobe na...  hobe naa 
            
Submit corrections

↑ Back to top | Tablatures and chords for acoustic guitar and electric guitar, ukulele, drums are parodies/interpretations of the original songs. You may use it for private study, scholarship, research or language learning purposes only