Home » S » System Of A Down »

System Of A Down - Toxicity Ukulele

Artists:  A B C D E F G H I J K L M N O P Q R S T U V W X Y Z # 

Toxicity Ukulele

(ver. 1) Click to play this song!
System Of A Down
 Rating:
4.3/5 (24 votes)
                [Intro]

    C5                              Eb5
A|----------------------------------------|----------------------------------------|
E|-----3-----3-----3-----3-----3-----3----|-----6-----6-----6-----6-----6-----6----|
C|--0-----0-----0-----0-----0-----0-------|--3-----3-----3-----3-----3-----3-------|
G|----------------------------------------|----------------------------------------|

    C5                              Eb5
A|----------------------------------------|----------------------------------------|
E|-----3-----3-----3--4-----4--3-----3----|-----6-----8-----8--6-----6--4-----4----|
C|--0-----0-----0--------0--------0-------|--3-----3-----3--------3--------3-------|
G|----------------------------------------|----------------------------------------|

[Riff]

    ^        v     v  ^     v     ^     ^  v  ^  v  ^        v     v  ^        
A|----------------------------------------------------------------------------|
E|----------------------------------------------------------------------------|
C|--0--------x-----x--x-----x-----x-----3--2--0--2--0--------x-----x--x-------|
G|--0--------x-----x--x-----x-----x-----3--2--0--2--0--------x-----x--x-------|

    ^     ^  v  ^  v  ^     ^  v  ^  v  ^     ^  v  ^  v  ^     ^  v  ^  v     
A|----------------------------------------------------------------------------|
E|--4-----4--4--4--4--4-----4--4--4--4--3-----3--3--3--3--3-----3--3--3--3----|
C|--3-----3--3--3--3--3-----3--3--3--3--2-----2--2--2--2--2-----2--2--2--2----|
G|----------------------------------------------------------------------------|

    ^        v     v  ^     v     ^     ^  v  ^  v  ^        v     v  ^        
A|----------------------------------------------------------------------------|
E|----------------------------------------------------------------------------|
C|--0--------x-----x--x-----x-----x-----3--2--0--2--0--------x-----x--x-------|
G|--0--------x-----x--x-----x-----x-----3--2--0--2--0--------x-----x--x-------|

    ^     ^  v  ^  v  ^     ^  v  ^  v  ^     ^  v  ^  v  ^     ^  v  ^  v     
A|----------------------------------------------------------------------------|
E|--4-----4--4--4--4--4-----4--4--4--4--3-----3--3--3--3--3-----3--3--3--3----|
C|--3-----3--3--3--3--3-----3--3--3--3--2-----2--2--2--2--2-----2--2--2--2----|
G|----------------------------------------------------------------------------|

    ^  v  ^  v  ^  v  ^  v  ^  v  ^  v  ^  v  ^  v  ^  v  ^  v  ^  v  ^  v     
A|----------------------------------------------------------------------------|
E|----------------------------------------------------------------------------|
C|--3--2--0--2--0--0--3--2--0--2--0--0--3--2--0--2--0--0--3--2--0--2--0--0----|
G|--3--2--0--2--0--0--3--2--0--2--0--0--3--2--0--2--0--0--3--2--0--2--0--0----|

    ^     ^  v  ^  v  ^     ^  v  ^  v  ^     ^  v  ^  v  ^     ^  v  ^  v     
A|----------------------------------------------------------------------------|
E|--4-----4--4--4--4--4-----4--4--4--4--3-----3--3--3--3--3-----3--3--3--3----|
C|--3-----3--3--3--3--3-----3--3--3--3--2-----2--2--2--2--2-----2--2--2--2----|
G|----------------------------------------------------------------------------|

    ^        v     v  ^     v     ^     ^  v  ^  v  ^        v     v  ^        
A|----------------------------------------------------------------------------|
E|----------------------------------------------------------------------------|
C|--0--------x-----x--x-----x-----x-----3--2--0--2--0--------x-----x--x-------|
G|--0--------x-----x--x-----x-----x-----3--2--0--2--0--------x-----x--x-------|

    ^     ^  v  ^  v  ^     ^  v  ^  v  ^     ^  v  ^  v  ^     ^  v  ^  v     
A|----------------------------------------------------------------------------|
E|--4-----4--4--4--4--4-----4--4--4--4--3-----3--3--3--3--3-----3--3--3--3----|
C|--3-----3--3--3--3--3-----3--3--3--3--2-----2--2--2--2--2-----2--2--2--2----|
G|----------------------------------------------------------------------------|


[Verse 1]

A|----------------------------------------|----------------------------------------|
E|-----3-----3-----3-----3-----3-----3----|-----6-----6-----6-----6-----6-----6----|
C|--0-----0-----0-----0-----0-----0-------|--3-----3-----3-----3-----3-----3-------|
G|----------------------------------------|----------------------------------------|

A|----------------------------------------|----------------------------------------|
E|-----3-----3-----3--4-----4--3-----3----|-----6-----8-----8--6-----6--4-----4----|
C|--0-----0-----0--------0--------0-------|--3-----3-----3--------3--------3-------|
G|----------------------------------------|----------------------------------------|

A|----------------------------------------|----------------------------------------|
E|-----3-----3-----3-----3-----3-----3----|-----6-----6-----6-----6-----6-----6----|
C|--0-----0-----0-----0-----0-----0-------|--3-----3-----3-----3-----3-----3-------|
G|----------------------------------------|----------------------------------------|

A|----------------------------------------|----------------------------------------|
E|-----3-----3-----3--4-----4--3-----3----|-----6-----8-----8--6-----6--4-----4----|
C|--0-----0-----0--------0--------0-------|--3-----3-----3--------3--------3-------|
G|----------------------------------------|----------------------------------------|

A|----------------------------------------|-----------5--------6--------5----------|
E|-----3-----3-----3-----3-----3-----3----|-----6--------6--------6--------6-------|
C|--0-----0-----0-----0-----0-----0-------|--3-----3--------3--------3--------3----|
G|----------------------------------------|----------------------------------------|

A|----------------------------------------|----------------------------------------|
E|-----3-----3-----3--4-----4--3-----3----|-----6-----8-----8--6-----6--4-----4----|
C|--0-----0-----0--------0--------0-------|--3-----3-----3--------3--------3-------|
G|----------------------------------------|----------------------------------------|


[Chorus]

    ^        v     v  ^     v     ^     ^  v  ^  v  ^        v     v  ^        
A|----------------------------------------------------------------------------|
E|----------------------------------------------------------------------------|
C|--0--------x-----x--x-----x-----x-----3--2--0--2--0--------x-----x--x-------|
G|--0--------x-----x--x-----x-----x-----3--2--0--2--0--------x-----x--x-------|

    ^     ^  v  ^  v  ^     ^  v  ^  v  ^     ^  v  ^  v  ^     ^  v  ^  v     
A|----------------------------------------------------------------------------|
E|--4-----4--4--4--4--4-----4--4--4--4--3-----3--3--3--3--3-----3--3--3--3----|
C|--3-----3--3--3--3--3-----3--3--3--3--2-----2--2--2--2--2-----2--2--2--2----|
G|----------------------------------------------------------------------------|

    ^        v     v  ^     v     ^     ^  v  ^  v  ^        v     v  ^        
A|----------------------------------------------------------------------------|
E|----------------------------------------------------------------------------|
C|--0--------x-----x--x-----x-----x-----3--2--0--2--0--------x-----x--x-------|
G|--0--------x-----x--x-----x-----x-----3--2--0--2--0--------x-----x--x-------|

    ^     ^  v  ^  v  ^     ^  v  ^  v  ^     ^  v  ^  v  ^     ^  v  ^  v     
A|----------------------------------------------------------------------------|
E|--4-----4--4--4--4--4-----4--4--4--4--3-----3--3--3--3--3-----3--3--3--3----|
C|--3-----3--3--3--3--3-----3--3--3--3--2-----2--2--2--2--2-----2--2--2--2----|
G|----------------------------------------------------------------------------|

    ^  v  ^  v  ^  v  ^  v  ^  v  ^  v  ^  v  ^  v  ^  v  ^  v  ^  v  ^  v     
A|----------------------------------------------------------------------------|
E|----------------------------------------------------------------------------|
C|--3--2--0--2--0--0--3--2--0--2--0--0--3--2--0--2--0--0--3--2--0--2--0--0----|
G|--3--2--0--2--0--0--3--2--0--2--0--0--3--2--0--2--0--0--3--2--0--2--0--0----|

    ^     ^  v  ^  v  ^     ^  v  ^  v  ^     ^  v  ^  v  ^     ^  v  ^  v     
A|----------------------------------------------------------------------------|
E|--4-----4--4--4--4--4-----4--4--4--4--3-----3--3--3--3--3-----3--3--3--3----|
C|--3-----3--3--3--3--3-----3--3--3--3--2-----2--2--2--2--2-----2--2--2--2----|
G|----------------------------------------------------------------------------|

    ^        v     v  ^     v     ^     ^  v  ^  v  ^        v     v  ^        
A|----------------------------------------------------------------------------|
E|----------------------------------------------------------------------------|
C|--0--------x-----x--x-----x-----x-----3--2--0--2--0--------x-----x--x-------|
G|--0--------x-----x--x-----x-----x-----3--2--0--2--0--------x-----x--x-------|

    ^     ^  v  ^  v  ^     ^  v  ^  v  ^     ^  v  ^  v  ^     ^  v  ^  v     
A|----------------------------------------------------------------------------|
E|--4-----4--4--4--4--4-----4--4--4--4--3-----3--3--3--3--3-----3--3--3--3----|
C|--3-----3--3--3--3--3-----3--3--3--3--2-----2--2--2--2--2-----2--2--2--2----|
G|----------------------------------------------------------------------------|


[Verse 2]

A|----------------------------------------|----------------------------------------|
E|-----3-----3-----3-----3-----3-----3----|-----6-----6-----6-----6-----6-----6----|
C|--0-----0-----0-----0-----0-----0-------|--3-----3-----3-----3-----3-----3-------|
G|----------------------------------------|----------------------------------------|

A|----------------------------------------|----------------------------------------|
E|-----3-----3-----3--4-----4--3-----3----|-----6-----8-----8--6-----6--4-----4----|
C|--0-----0-----0--------0--------0-------|--3-----3-----3--------3--------3-------|
G|----------------------------------------|----------------------------------------|

A|----------------------------------------|----------------------------------------|
E|-----3-----3-----3-----3-----3-----3----|-----6-----6-----6-----6-----6-----6----|
C|--0-----0-----0-----0-----0-----0-------|--3-----3-----3-----3-----3-----3-------|
G|----------------------------------------|----------------------------------------|

A|----------------------------------------|----------------------------------------|
E|-----3-----3-----3--4-----4--3-----3----|-----6-----8-----8--6-----6--4-----4----|
C|--0-----0-----0--------0--------0-------|--3-----3-----3--------3--------3-------|
G|----------------------------------------|----------------------------------------|

A|----------------------------------------|-----------5--------6--------5----------|
E|-----3-----3-----3-----3-----3-----3----|-----6--------6--------6--------6-------|
C|--0-----0-----0-----0-----0-----0-------|--3-----3--------3--------3--------3----|
G|----------------------------------------|----------------------------------------|

A|----------------------------------------|----------------------------------------|
E|-----3-----3-----3--4-----4--3-----3----|-----6-----8-----8--6-----6--4-----4----|
C|--0-----0-----0--------0--------0-------|--3-----3-----3--------3--------3-------|
G|----------------------------------------|----------------------------------------|


[Chorus]

    ^        v     v  ^     v     ^     ^  v  ^  v  ^        v     v  ^        
A|----------------------------------------------------------------------------|
E|----------------------------------------------------------------------------|
C|--0--------x-----x--x-----x-----x-----3--2--0--2--0--------x-----x--x-------|
G|--0--------x-----x--x-----x-----x-----3--2--0--2--0--------x-----x--x-------|

    ^     ^  v  ^  v  ^     ^  v  ^  v  ^     ^  v  ^  v  ^     ^  v  ^  v     
A|----------------------------------------------------------------------------|
E|--4-----4--4--4--4--4-----4--4--4--4--3-----3--3--3--3--3-----3--3--3--3----|
C|--3-----3--3--3--3--3-----3--3--3--3--2-----2--2--2--2--2-----2--2--2--2----|
G|----------------------------------------------------------------------------|

    ^        v     v  ^     v     ^     ^  v  ^  v  ^        v     v  ^        
A|----------------------------------------------------------------------------|
E|----------------------------------------------------------------------------|
C|--0--------x-----x--x-----x-----x-----3--2--0--2--0--------x-----x--x-------|
G|--0--------x-----x--x-----x-----x-----3--2--0--2--0--------x-----x--x-------|

    ^     ^  v  ^  v  ^     ^  v  ^  v  ^     ^  v  ^  v  ^     ^  v  ^  v     
A|----------------------------------------------------------------------------|
E|--4-----4--4--4--4--4-----4--4--4--4--3-----3--3--3--3--3-----3--3--3--3----|
C|--3-----3--3--3--3--3-----3--3--3--3--2-----2--2--2--2--2-----2--2--2--2----|
G|----------------------------------------------------------------------------|

    ^  v  ^  v  ^  v  ^  v  ^  v  ^  v  ^  v  ^  v  ^  v  ^  v  ^  v  ^  v     
A|----------------------------------------------------------------------------|
E|----------------------------------------------------------------------------|
C|--3--2--0--2--0--0--3--2--0--2--0--0--3--2--0--2--0--0--3--2--0--2--0--0----|
G|--3--2--0--2--0--0--3--2--0--2--0--0--3--2--0--2--0--0--3--2--0--2--0--0----|

    ^     ^  v  ^  v  ^     ^  v  ^  v  ^     ^  v  ^  v  ^     ^  v  ^  v     
A|----------------------------------------------------------------------------|
E|--4-----4--4--4--4--4-----4--4--4--4--3-----3--3--3--3--3-----3--3--3--3----|
C|--3-----3--3--3--3--3-----3--3--3--3--2-----2--2--2--2--2-----2--2--2--2----|
G|----------------------------------------------------------------------------|

    ^        v     v  ^     v     ^     ^  v  ^  v  ^        v     v  ^        
A|----------------------------------------------------------------------------|
E|----------------------------------------------------------------------------|
C|--0--------x-----x--x-----x-----x-----3--2--0--2--0--------x-----x--x-------|
G|--0--------x-----x--x-----x-----x-----3--2--0--2--0--------x-----x--x-------|

    ^     ^  v  ^  v  ^     ^  v  ^  v  ^     ^  v  ^  v  ^     ^  v  ^  v     
A|----------------------------------------------------------------------------|
E|--4-----4--4--4--4--4-----4--4--4--4--3-----3--3--3--3--3-----3--3--3--3----|
C|--3-----3--3--3--3--3-----3--3--3--3--2-----2--2--2--2--2-----2--2--2--2----|
G|----------------------------------------------------------------------------|


[Instrumental Bridge]

A|--------------------------------------------------------------------------|
E|o------------------------------------------------------------------------o|
C|o0L----0--0--0--0--3--2--0--2b-------0L----0--0--0--0--3--2--0--2b-------o|
G|--------------------------------------------------------------------------|


A|--------------------------------------------------------------------------|
E|o------------------------------------------------------------------------o|
C|o3--2--0--0--0--0--3--2--0--0--0--0--3--2--0--0--0--0--3--2--0--0--0--0--o|
G|-3--2--0--0--0--0--3--2--0--0--0--0--3--2--0--0--0--0--3--2--0--0--0--0---|


A|--------------------------------------------------------------------------|
E|o------------------------------------------------------------------------o|
C|o0L----0--0-----0--3--2--0--1b-------0L----0--0-----0--3--2--0--1b-------o|
G|-0--------0-----0--3--2--0-----------0--------0-----0--3--2--0------------|


A|--------------------------------------------------------------------------|
E|o------------------------------------------------------------------------o|
C|o3--2--0--0--0--0--3--2--0--0--0--0--3--2--0--0--0--0--3--2--0--0--0--0--o|
G|-3--2--0--0--0--0--3--2--0--0--0--0--3--2--0--0--0--0--3--2--0--0--0--0---|


[Chorus]

    ^        v     v  ^     v     ^     ^  v  ^  v  ^        v     v  ^        
A|----------------------------------------------------------------------------|
E|----------------------------------------------------------------------------|
C|--0--------x-----x--x-----x-----x-----3--2--0--2--0--------x-----x--x-------|
G|--0--------x-----x--x-----x-----x-----3--2--0--2--0--------x-----x--x-------|

    ^     ^  v  ^  v  ^     ^  v  ^  v  ^     ^  v  ^  v  ^     ^  v  ^  v     
A|----------------------------------------------------------------------------|
E|--4-----4--4--4--4--4-----4--4--4--4--3-----3--3--3--3--3-----3--3--3--3----|
C|--3-----3--3--3--3--3-----3--3--3--3--2-----2--2--2--2--2-----2--2--2--2----|
G|----------------------------------------------------------------------------|

    ^        v     v  ^     v     ^     ^  v  ^  v  ^        v     v  ^        
A|----------------------------------------------------------------------------|
E|----------------------------------------------------------------------------|
C|--0--------x-----x--x-----x-----x-----3--2--0--2--0--------x-----x--x-------|
G|--0--------x-----x--x-----x-----x-----3--2--0--2--0--------x-----x--x-------|

    ^     ^  v  ^  v  ^     ^  v  ^  v  ^     ^  v  ^  v  ^     ^  v  ^  v     
A|----------------------------------------------------------------------------|
E|--4-----4--4--4--4--4-----4--4--4--4--3-----3--3--3--3--3-----3--3--3--3----|
C|--3-----3--3--3--3--3-----3--3--3--3--2-----2--2--2--2--2-----2--2--2--2----|
G|----------------------------------------------------------------------------|

    ^  v  ^  v  ^  v  ^  v  ^  v  ^  v  ^  v  ^  v  ^  v  ^  v  ^  v  ^  v     
A|----------------------------------------------------------------------------|
E|----------------------------------------------------------------------------|
C|--3--2--0--2--0--0--3--2--0--2--0--0--3--2--0--2--0--0--3--2--0--2--0--0----|
G|--3--2--0--2--0--0--3--2--0--2--0--0--3--2--0--2--0--0--3--2--0--2--0--0----|

    ^     ^  v  ^  v  ^     ^  v  ^  v  ^     ^  v  ^  v  ^     ^  v  ^  v     
A|----------------------------------------------------------------------------|
E|--4-----4--4--4--4--4-----4--4--4--4--3-----3--3--3--3--3-----3--3--3--3----|
C|--3-----3--3--3--3--3-----3--3--3--3--2-----2--2--2--2--2-----2--2--2--2----|
G|----------------------------------------------------------------------------|

    ^        v     v  ^     v     ^     ^  v  ^  v  ^        v     v  ^        
A|----------------------------------------------------------------------------|
E|----------------------------------------------------------------------------|
C|--0--------x-----x--x-----x-----x-----3--2--0--2--0--------x-----x--x-------|
G|--0--------x-----x--x-----x-----x-----3--2--0--2--0--------x-----x--x-------|

    ^     ^  v  ^  v  ^     ^  v  ^  v  ^     ^  v  ^  v  ^     ^  v  ^  v     
A|----------------------------------------------------------------------------|
E|--4-----4--4--4--4--4-----4--4--4--4--3-----3--3--3--3--3-----3--3--3--3----|
C|--3-----3--3--3--3--3-----3--3--3--3--2-----2--2--2--2--2-----2--2--2--2----|
G|----------------------------------------------------------------------------|


[Outro]

A|----------------------------------------------------------------------------|
E|----------------------------------------------------------------------------|
C|--3--2--0--0--0--0--3--2--0--0--0--0--3--2--0--0--0--0--3--2--0--0--0--0----|
G|--3--2--0--0--0--0--3--2--0--0--0--0--3--2--0--0--0--0--3--2--0--0--0--0----|


A|----------------------------------------------------------------------------|
E|----------------------------------------------------------------------------|
C|--3--2--0--0--0--0--3--2--0--0--0--0--3--2--0--0--0--0--3--2--0--0--0--0----|
G|--3--2--0--0--0--0--3--2--0--0--0--0--3--2--0--0--0--0--3--2--0--0--0--0----|


A|----------------------------------------------------------------------------|
E|----------------------------------------------------------------------------|
C|--0L----0--0-----0--3--2--0--2--------0L----0--0-----0--3--2--0--2----------|
G|--0--------0-----0--3--2--0--2--------0--------0-----0--3--2--0--2----------|


A|----------------------------------------------------------------------------|
E|----------------------------------------------------------------------------|
C|--0L----0--0-----0--3--2--0--2--------0L----0--0-----0--3--2--0--2----------|
G|--0--------0-----0--3--2--0--2--------0--------0-----0--3--2--0--2----------|

            
Submit corrections

↑ Back to top | Tablatures and chords for acoustic guitar and electric guitar, ukulele, drums are parodies/interpretations of the original songs. You may use it for private study, scholarship, research or language learning purposes only