» » »

Sworn In - Scissors Tabs

Artists:  A B C D E F G H I J K L M N O P Q R S T U V W X Y Z # 

Scissors Tabs

(ver. 1) Click to play this song!
Sworn In
 Rating:
2.8/5 (24 votes)

 Scissors  lessons Tabs too difficult? Try these video lessons and learn fast
 
                clean intro (octave pedal off)

e|---------------------------------------------------------------------------|
B|---------------------------------------------------------------------------|
G|---------------------------------------------------------------------------|
D|------5-8------------------------------------------------------------------| x2
A|-4-7---------2-4-2----2-1---2-1---2-1---2-1---2-1-2------------------------|
E|-----------5--------2-----2-----2-----2-----2------------------------------|

distortion, octave down

e|---------------------------------------------------------------------------|
B|---------------------------------------------------------------------------|
G|---------------------------------------------------------------------------|
D|---------------------------------------------------------------------------|
A|-4-4------------------4-4-------------------4-4----------------------------|
E|------5-5-5--2---2-2-------5-5-5--2---2--2------5-5-5--2---2-2-------------|

"it's choking me and i can't f**king breath..."

e|---------------------------------------------------------------------------|
B|---------------------------------------------------------------------------|
G|---------------------------------------------------------------------------|
D|---------------------------------------------------------------------------|
A|-4-4-----------------------------------------------------------------------|
E|------5-5-5--2-2-2--2-2-2--2-2-2--2----------------------------------------|

*play intro again* "lately, baby, i can't think straight"

heavy part. distortion, octave down "we come together so close..."

e|---------------------------------------------------------------------------|
B|---------------------------------------------------------------------------|
G|-----------5ph-------------------------------------------------------------|
D|---------------------------------------------------------------------------| x4
A|-444-4-----------------------4---------------------------------------------|
E|--------55----0--222-2-222-2---2-------------------------------------------|

Chorus "cos you're out of luck"

e|---------------------------------------------------------------------------|
B|---------------------------------------------------------------------------|
G|---------------------------------------------------------------------------|
D|---------------------------------------------------------------------------| x4
A|-4-44-4--2---2-------------------------------------------------------------|
E|-----------4----7-77-77-7-7--4-44------------------------------------------|

back to clean, octave up intro "lately, baby, i can't think straight"

slow heavy part, distortion, octave down
e|---------------------------------------------------------------------------|
B|---------------------------------------------------------------------------|
G|---------------------------------------------------------------------------|
D|------------------------------------------------------------2---2---2------|
A|-4-4----------------4----4-4---------------4----4-4-----------------------4|
E|------5-5-5--2--2-2---2------5-5-5--2--2-2---2-------5-5-5----2---2---2-2--|

e|---------------------------------------------------------------------------|
B|---------------------------------------------------------------------------|
G|---------------------------------------------------------------------------|
D|---------------------------------------------------------------------------|
A|----4-4--------------------------------------------------------------------|
E|-2-------5-5-5--222--222-222-2---------------------------------------------|

play the chorus again

bridge, clean, octave up "i'd hate to tell you that i'm dying..."

e|---------------------------------------------------------------------------|
B|---------------------------------------------------------------------------|
G|----5------5----5----------------------------------------------------------|
D|-----------------------7--------7----7-------------------------------------| x3
A|---------------------------------------------------------------------------|
E|-4-4-4--4-4-4--4-4--0-0-0--0-0-0-0--0-0------------------------------------|

distortion kicks back in, octave down "but one of us starts to detach"

e|---------------------------------------------------------------------------|
B|---------------------------------------------------------------------------|
G|---------------------------------------------------------------------------|
D|---------------------------------------------------------------------------|
A|---------------------------------------------------------------------------|
E|-000-000-000-0-------------------------------------------------------------|

breakdown #1 "cut, cut, cut, cut, cut me up"

e|---------------------------------------------------------------------------|
B|---------------------------------------------------------------------------|
G|---------------------------------------------------------------------------|
D|---------------------------------------------------------------------------| x4
A|-0-0-/--0---/8--0-0-/-0-/8-------------------------------------------------|
E|-0-0/---0---/8--0-0/--0-/8-------------------------------------------------|

breakdown #2, play this until the song becomes quiet

e|---------------------------------------------------------------------------|
B|---------------------------------------------------------------------------|
G|---------------------------------------------------------------------------|
D|---------------------------------------------------------------------------|
A|-0-0-0-------1----------------------0--------------------------------------|
E|-1-1-1-0-1-1---4--0--1b-0-1b-0-1b-0-1--------------------------------------|
            
Submit corrections


        Scissors  lessons Hard to play? Try these video lessons and learn fast Scissors  lessons
        
↑ Back to top | Tablatures and chords for acoustic guitar and electric guitar, ukulele, drums are parodies/interpretations of the original songs. You may use it for private study, scholarship, research or language learning purposes only