» » »

Sweet - Ballroom Blitz Bass

Artists:  A B C D E F G H I J K L M N O P Q R S T U V W X Y Z # 

Ballroom Blitz Bass

(ver. 3) Click to play this song!
Sweet
 Rating:
4.2/5 (5 votes)

 Ballroom Blitz lessons Tabs too difficult? Try these video lessons and learn fast
 
                Intro
G--------|
D--------|
A--------|
E-0(16x)-

Verse
G--------------- ---------- ---------- -----------|
D--------------- ---------- ---------- -----------|
A--------------- ---rest--- ---rest--- ---2(hold)-|
E-5(16x)-0(16x)- ---------- ---------- -----------|

Pre Chorus
G---------------------------------------------------------------------------------|
D---------------------------------------------------------------------------------|
A--------------------------------3-3-3-3-3-3-3-3----------------------------------|
E-2-2-2-2-2-2-2-2-5-5-5-5-5-5-5-5----------------0-0-0-0-0-0-0-0-0-0-0-0-0-0-0-0--|

Chorus
G---------------------------------------------------------------|
D---------------------------------------------------------------|
A----------------2-2-2-2------------------------2-2-2-2---------|
E-2-2-2-2-5-5-5-5--------0-0-0-0-2-2-2-2-5-5-5-5--------0-0-0-0-|

---------------------------------------------------|
---------------------------------------------------|
-5-6-7---------5-6-7---------5-6-7---------5-6-7---|
------0-0-0-0-0-----0-0-0-0-0-----0-0-0-0-0------0-|

Break
G-------------------------------------------------|
D--------------------<------------------------<-<-|
A-7-7-7-7-7-7-7-7-7--5--7-7-7-7-7-7-7-7-7-7-7-5-6-|
E-------------------------------------------------|

Intro
Verse
Pre Chorus
Chorus
intro
verse
pre chorus
chorus
break
pre chorus
chorus
intro (E until it fades)
            
Submit corrections


        Ballroom Blitz lessons Hard to play? Try these video lessons and learn fast Ballroom Blitz lessons
        
↑ Back to top | Tablatures and chords for acoustic guitar and electric guitar, ukulele, drums are parodies/interpretations of the original songs. You may use it for private study, scholarship, research or language learning purposes only