Home » S » Swans »

Swans - Blind Tabs

Artists:  A B C D E F G H I J K L M N O P Q R S T U V W X Y Z # 

Blind Tabs

(ver. 1) Click to play this song!
Swans
Tuning EADAAe (Capo 1) 

e|---5--5------5---------5---------5----------------------------|
A|--------0-------0---------0--------0--------------------------|
A|----------0--------0---------0--------0-----------------------|
D|---0----------------------------------------------------------|
A|--------------------------------------------------------------|
E|--------------------------------------------------------------|

e|---0-2-----------2---------2--0-----------0---------0----------|
A|---------0----------0-------------0-----------0----------------|
A|------------0----------0-------------0-----------0-------------|
D|---------------------------------------------------------------|   X 2 Verse
A|------------------------------0--------------------------------|
E|-----2---------------------------------------------------------|



e|-------------2------0----0-------------------------------------|
A|-------2-------2-----------------0-----------------------------|
A|---------4-------4-----------0---------------------------------|
D|----4--------------------4-------------------------------------|  Chorus
A|----2------2-------------4-------------------------------------|
E|-----------------------2-------------2-------------------------|

e|------2-----0-----0------------------------------------------|
A|------2------0----0------------------------------------------|
A|------4-------0---0------------------------------------------|
D|------4-----------4------------------------------------------| Phaser Chorus Chords
A|------2-----------4------------------------------------------|
E|------------------2------------------------------------------|



| /  slide up
| \  slide down
| h  hammer-on
| p  pull-off
| ~  vibrato
| +  harmonic
| x  Mute note
            
Submit corrections

↑ Back to top | Tablatures and chords for acoustic guitar and electric guitar, ukulele, drums are parodies/interpretations of the original songs. You may use it for private study, scholarship, research or language learning purposes only