Home » S » Surfer Blood »

Surfer Blood - Neighbour Riffs Bass

Artists:  A B C D E F G H I J K L M N O P Q R S T U V W X Y Z # 

Neighbour Riffs Bass

(ver. 1) Click to play this song!
Surfer Blood
-------------------------------------------------------------------------------
-------------------------------------------------------------------------------


Tuning: EADG (standard)

Repeat through entire song.
G|--------------------------------------------|
D|-------------7-7-7-7-12-11------------------|
A|----7-7-7-7-----------------12--12-12-11----|
E|--------------------------------------------|

Can also be played like this:
G|--------------------7-6--------------|
D|------------7-7-7-7------7--7-7-6----|
A|----7-7-7-7--------------------------|
E|-------------------------------------|

Really easy to play, but really fun as well.

| /  slide up
| \  slide down
| h  hammer-on
| p  pull-off
| ~  vibrato
| +  harmonic
            
Submit corrections

↑ Back to top | Tablatures and chords for acoustic guitar and electric guitar, ukulele, drums are parodies/interpretations of the original songs. You may use it for private study, scholarship, research or language learning purposes only