Home » S » Surfer Blood »

Surfer Blood - Demon Dance Tabs

Artists:  A B C D E F G H I J K L M N O P Q R S T U V W X Y Z # 

Demon Dance Tabs

(ver. 1) Click to play this song!
Surfer Blood
[Intro]
Guitar #1
e|-----------------------0--|
B|------0-3--0---------0----|
G|----0--------0-----0------| (x2)
D|--0------------0-2--------|
A|--------------------------|
E|--------------------------|

Guitar #2
e|--3-3-3-5--5-5-3--3-3-3-3--3-3-3--|
B|--3-3-3-3--3-3-3--5-5-5-5--5-5-5--|
G|--4-4-4-4--4-4-4--4-4-4-4--4-4-4--| (x4)
D|--5-5-5-5--5-5-5--5-5-5-5--5-5-5--|
A|----------------------------------|
E|----------------------------------|
    d u d u  u d u  d u d u  u d u 

(8s)
Guitar #1
e|----------------------|
B|----------------------|
G|----------------------| (x4)
D|--5--5-5-5--2--2-2-2--|
A|--5--5-5-5--2--2-2-2--|
E|--3--3-3-3--0--0-0-0--|

(8s)
Guitar #3
bend 11 to 12. Listen to song for how many times
e|--------|------------------------|
B|--11^12-|---2^3-2^3-2^3--4^5-4^5-|
G|--------|------------------------| (x1)
D|--------|------------------------|
A|--------|------------------------|
E|--------|------------------------|

[Verse #1]
Guitar #1 & Guitar #3
e|----------------------|
B|----------------------|
G|----------------------| (x3)
D|--5--5-5-5--2--2-2-2--|
A|--5--5-5-5--2--2-2-2--|
E|--3--3-3-3--0--0-0-0--|

e|-----------------------------|
B|-----------------------------|
G|------------9-9-9-9-7-7-7-7--| (x1)
D|--5--5-5-5--9-9-9-9-7-7-7-7--|
A|--5--5-5-5--7-7-7-7-5-5-5-5--|
E|--3--3-3-3-------------------|

Guitar #2
e|--3-3-3-5--5-5-3--3-3-3-3--3-3-3--|
B|--3-3-3-3--3-3-3--5-5-5-5--5-5-5--|
G|--4-4-4-4--4-4-4--4-4-4-4--4-4-4--| (x3)
D|--5-5-5-5--5-5-5--5-5-5-5--5-5-5--|
A|----------------------------------|
E|----------------------------------|
    d u d u  u d u  d u d u  u d u 

e|--3-3-3-5--5-5-3--3-3-3--1-1-1--|
B|--3-3-3-3--3-3-3--5-5-5--2-2-2--|
G|--4-4-4-4--4-4-4--4-4-4--1-1-1--| (x1)
D|--5-5-5-5--5-5-5--5-5-5--0-0-0--|
A|--------------------------------|
E|--------------------------------|
    d u d u  u d u  d d d  d d d 

[Pre-Chorus #1]
Guitar #1 & Guitar #3
e|----------------------------------------------------|
B|----------------------------------------------------|
G|--5--5--5-5--5--5--5-5--8--8--8-8--8-8-8-8-8-8-8-8--| (x1)
D|--5--5--5-5--5--5--5-5--8--8--8-8--8-8-8-8-8-8-8-8--|
A|--3--3--3-3--3--3--3-3--6--6--6-6--6-6-6-6-6-6-6-6--|
E|----------------------------------------------------|

Guitar #2
e|--3--3--3-3--3--3--3-3--3--3--3-3--3-3-3-3-3-3-3-3--| 
B|--5--5--5-5--5--5--5-5--4--4--4-4--4-4-4-4-4-4-4-4--| 
G|--5--5--5-5--5--5--5-5--5--5--5-5--5-5-5-5-5-5-5-5--| (x1)
D|--5--5--5-5--5--5--5-5--5--5--5-5--5-5-5-5-5-5-5-5--| 
A|----------------------------------------------------|
E|----------------------------------------------------|
    d  d  d d  d  d  d d  d  d  d d  d d d d d d d d

[Chorus #1]
Guitar #1 & Guitar #3
e|----------------------------------|
B|----------------------------------|
G|-----------------9-9-9-9-7-7-7-7--| (x4)
D|-5-5-5-5-9-9-9-9-9-9-9-9-7-7-7-7--|
A|-5-5-5-5-9-9-9-9-7-7-7-7-5-5-5-5--|
E|-3-3-3-3-7-7-7-7------------------|

Guitar #2
e|--10-10-10-10-14-14-14-14-12-12-12-12-10-10-10-10--|
B|--12-12-12-12-15-15-15-15-12-12-12-12-10-10-10-10--|
G|--12-12-12-12-16-16-16-16-12-12-12-12-11-11-11-11--| (x4)
D|--12-12-12-12-16-16-16-16-14-14-14-14-12-12-12-12--|
A|--10-10-10-10-14-14-14-14-14-14-14-14-12-12-12-12--|
E|--------------------------12-12-12-12-10-10-10-10--|

[After-Chorus #1]
Guitar #1
e|----------------------|
B|----------------------|
G|----------------------| (x2)
D|--5--5-5-5--2--2-2-2--|
A|--5--5-5-5--2--2-2-2--|
E|--3--3-3-3--0--0-0-0--|

Guitar #2
e|--3-3-3-5--5-5-3--3-3-3-3--3-3-3--|
B|--3-3-3-3--3-3-3--5-5-5-5--5-5-5--|
G|--4-4-4-4--4-4-4--4-4-4-4--4-4-4--| (x2)
D|--5-5-5-5--5-5-5--5-5-5-5--5-5-5--|
A|----------------------------------|
E|----------------------------------|
    d u d u  u d u  d u d u  u d u 

Guitar #3
bend 11 to 12. Listen to song for how many times
e|--------|-----------------------------|
B|--11^12-|---2^3-2^3-2^3--4^5-4^5-4^5--|
G|--------|-----------------------------| (x1)
D|--------|-----------------------------|
A|--------|-----------------------------|
E|--------|-----------------------------|

[Verse #2]
Guitar #1 & Guitar #3
e|---|----------------------------|
B|---|----------------------------|
G|---|----------------------------| (x3)
D|-5-|--5-5-4-4-2-2--2-2-4-4-5-5--|
A|-5-|--5-5-4-4-2-2--2-2-4-4-5-5--|
E|-3-|--3-3-2-2-0-0--0-0-2-2-3-3--|

e|----------------------------|
B|----------------------------|
G|-----------9-9-9-9-7-7-7-7--| (x1)
D|--5-5-4-4--9-9-9-9-7-7-7-7--|
A|--5-5-4-4--7-7-7-7-5-5-5-5--|
E|--3-3-2-2-------------------|

Guitar #2
e|--3-3-3-5--5-5-3--3-3-3-3--3-3-3--|
B|--3-3-3-3--3-3-3--5-5-5-5--5-5-5--|
G|--4-4-4-4--4-4-4--4-4-4-4--4-4-4--| (x3)
D|--5-5-5-5--5-5-5--5-5-5-5--5-5-5--|
A|----------------------------------|
E|----------------------------------|
    d u d u  u d u  d u d u  u d u 

e|--3-3-3-5--5-5-3--3-3-3--1-1-1--|
B|--3-3-3-3--3-3-3--5-5-5--2-2-2--|
G|--4-4-4-4--4-4-4--4-4-4--1-1-1--| (x1)
D|--5-5-5-5--5-5-5--5-5-5--0-0-0--|
A|--------------------------------|
E|--------------------------------|
    d u d u  u d u  d d d  d d d 

[Pre-Chorus #2]
Guitar #1 & Guitar #3
e|----------------------------------------------------|
B|----------------------------------------------------|
G|--5--5--5-5--5--5--5-5--8--8--8-8--8-8-8-8-8-8-8-8--| (x1)
D|--5--5--5-5--5--5--5-5--8--8--8-8--8-8-8-8-8-8-8-8--|
A|--3--3--3-3--3--3--3-3--6--6--6-6--6-6-6-6-6-6-6-6--|
E|----------------------------------------------------|

Guitar #2
e|--3--3--3-3--3--3--3-3--3--3--3-3--3-3-3-3-3-3-3-3--| 
B|--5--5--5-5--5--5--5-5--4--4--4-4--4-4-4-4-4-4-4-4--| 
G|--5--5--5-5--5--5--5-5--5--5--5-5--5-5-5-5-5-5-5-5--| (x1)
D|--5--5--5-5--5--5--5-5--5--5--5-5--5-5-5-5-5-5-5-5--| 
A|----------------------------------------------------|
E|----------------------------------------------------|
    d  d  d d  d  d  d d  d  d  d d  d d d d d d d d


[Chorus #2]

Guitar #1 & Guitar #3
e|----------------------------------|
B|----------------------------------|
G|-----------------9-9-9-9-7-7-7-7--| (x4)
D|-5-5-5-5-9-9-9-9-9-9-9-9-7-7-7-7--|
A|-5-5-5-5-9-9-9-9-7-7-7-7-5-5-5-5--|
E|-3-3-3-3-7-7-7-7------------------|

Guitar #2
e|--10-10-10-10-14-14-14-14-12-12-12-12-10-10-10-10--|
B|--12-12-12-12-15-15-15-15-12-12-12-12-10-10-10-10--|
G|--12-12-12-12-16-16-16-16-12-12-12-12-11-11-11-11--| (x4)
D|--12-12-12-12-16-16-16-16-14-14-14-14-12-12-12-12--|
A|--10-10-10-10-14-14-14-14-14-14-14-14-12-12-12-12--|
E|--------------------------12-12-12-12-10-10-10-10--|

[Bridge]
Guitar #1
e|-----------------------0--|
B|------0-3--0---------0----|
G|----0--------0-----0------| (x4)
D|--0------------0-2--------|
A|--------------------------|
E|--------------------------|

Guitar #2
e|--3-3-3-5--5-5-3--3-3-3-3--3-3-3--|
B|--3-3-3-3--3-3-3--5-5-5-5--5-5-5--|
G|--4-4-4-4--4-4-4--4-4-4-4--4-4-4--| (x4)
D|--5-5-5-5--5-5-5--5-5-5-5--5-5-5--|
A|----------------------------------|
E|----------------------------------|
    d u d u  u d u  d u d u  u d u 

[Verse #3]
Guitar #1
e|----------------------|
B|----------------------|
G|----------------------| (x6)
D|--5--5-5-5--2--2-2-2--|
A|--5--5-5-5--2--2-2-2--|
E|--3--3-3-3--0--0-0-0--|

Guitar #2
e|--3-3-3-5--5-5-3--3-3-3-3--3-3-3--|
B|--3-3-3-3--3-3-3--5-5-5-5--5-5-5--|
G|--4-4-4-4--4-4-4--4-4-4-4--4-4-4--| (x6)
D|--5-5-5-5--5-5-5--5-5-5-5--5-5-5--|
A|----------------------------------|
E|----------------------------------|

Pull of from 12 to 11 then hammer on to 12. Listen to song for how many times. 
Play 12 every 8 beats.
Guitar #3
e|-------------|--------------------|
B|-------------|-12---12---12---12--|
G|---12p11h12--|--------------------|
D|-------------|--------------------|
A|-------------|--------------------|
E|-------------|--------------------|

[Pre-Chorus #3]
First and second power chord (x16)
Guitar #1 & Guitar #3
e|-----------------------------------------------------------------|
B|-----------------------------------------------------------------|
G|--5-5-5-5-5-5-5-5-5-5-5-5-5-5-5-8-8-8-8-8-8-8-8-8-8-8-8-8-8-8-8--| (x1)
D|--5-5-5-5-5-5-5-5-5-5-5-5-5-5-5-8-8-8-8-8-8-8-8-8-8-8-8-8-8-8-8--|
A|--3-3-3-3-3-3-3-3-3-3-3-3-3-3-3-6-6-6-6-6-6-6-6-6-6-6-6-6-6-6-6--|
E|-----------------------------------------------------------------|

First and second chord (x16)
Guitar #2
e|--3-3-3-3-3-3-3-3-3-3-3-3-3-3-3-3-3-3-3-4-3-3-3-3-3-3-3-3-3-3-3--| 
B|--5-5-5-5-5-5-5-5-5-5-5-5-5-5-5-5-4-4-4-4-4-4-4-4-4-4-4-4-4-4-4--| 
G|--5-5-5-5-5-5-5-5-5-5-5-5-5-5-5-5-5-5-5-5-5-5-5-5-5-5-5-5-5-5-5--| (x1)
D|--5-5-5-5-5-5-5-5-5-5-5-5-5-5-5-5-5-5-5-5-5-5-5-5-5-5-5-5-5-5-5--| 
A|-----------------------------------------------------------------|
E|-----------------------------------------------------------------|
    d d d d d d d d d d d d d d d d d d d d d d d d d d d d d d d 

[Chorus #2]

Guitar #1 & Guitar #3
e|----------------------------------|
B|----------------------------------|
G|-----------------9-9-9-9-7-7-7-7--| (x4)
D|-5-5-5-5-9-9-9-9-9-9-9-9-7-7-7-7--|
A|-5-5-5-5-9-9-9-9-7-7-7-7-5-5-5-5--|
E|-3-3-3-3-7-7-7-7------------------|

Guitar #2
e|--10-10-10-10-14-14-14-14-12-12-12-12-10-10-10-10--|
B|--12-12-12-12-15-15-15-15-12-12-12-12-10-10-10-10--|
G|--12-12-12-12-16-16-16-16-12-12-12-12-11-11-11-11--| (x4)
D|--12-12-12-12-16-16-16-16-14-14-14-14-12-12-12-12--|
A|--10-10-10-10-14-14-14-14-14-14-14-14-12-12-12-12--|
E|--------------------------12-12-12-12-10-10-10-10--|

[Outro]
On the forth time let the last note ring
Guitar #1 & Guitar #3
e|----------------------------------|
B|----------------------------------|
G|-----------------9-9-9-9-7-7-7-7--| (x4)
D|-5-5-5-5-9-9-9-9-9-9-9-9-7-7-7-7--|
A|-5-5-5-5-9-9-9-9-7-7-7-7-5-5-5-5--|
E|-3-3-3-3-7-7-7-7------------------|

On the forth time let the last note ring
Guitar #2
e|--10-10-10-10-14-14-14-14-12-12-12-12-10-10-10-10--|
B|--12-12-12-12-15-15-15-15-12-12-12-12-10-10-10-10--|
G|--12-12-12-12-16-16-16-16-12-12-12-12-11-11-11-11--| (x4)
D|--12-12-12-12-16-16-16-16-14-14-14-14-12-12-12-12--|
A|--10-10-10-10-14-14-14-14-14-14-14-14-12-12-12-12--|
E|--------------------------12-12-12-12-10-10-10-10--|            
Submit corrections

↑ Back to top | Tablatures and chords for acoustic guitar and electric guitar, ukulele, drums are parodies/interpretations of the original songs. You may use it for private study, scholarship, research or language learning purposes only