Home » S » Supertramp »

Supertramp - Dreamer Tabs

Artists:  A B C D E F G H I J K L M N O P Q R S T U V W X Y Z # 

Dreamer Tabs

(ver. 1) Click to play this song!
Supertramp
 Intro
  Q=148
  D
 4/4
  Gtr I (El. Piano arr. for Gtr.)
  E E E E E E E E   E E E E E E E E
|-5-5-5-5-5-5-5-5-|-5-5-5-5-5-5-5-5-|
|-7-7-7-7-7-7-7-7-|-7-7-7-7-7-7-7-7-|
|-7-7-7-7-7-7-7-7-|-7-7-7-7-7-7-7-7-|
|-0---------------|-----------------|
|-----------------|---------------0-|
|-----------------|-----------------|
|
| Gtr II (Glockenspiel arr. for Gtr.)
| W                 W
|-----------------|-----------------|
|-----------------|-----------------|
|-----------------|-----------------|
|-----------------|-----------------|
|-----------------|-----------------|
|-----------------|-----------------|


   E   E   E  E E E E E     E   E E E E E E E
|--5---5---5--5-5-5-5-5-|---5---5-5-5-5-5-5-5-||
|--7---7---7--7-7-7-7-7-|---7---7-7-7-7-7-7-7-||
|--7---7---7--7-7-7-7-7-|---7---7-7-7-7-7-7-7-||
|--0--------------------|---------------------||
|-----------------------|-------------------0-||
|-----------------------|---------------------||
|
|  E   E   H.              +W
|-----------------------|---------------------||
|-----[7]---------------|---------------------||
|---------[7]-----------|-([7])---------------||
|-[3]-------------------|---------------------||
|-----------------------|---------------------||
|-----------------------|---------------------||


 1st Verse
                      A7sus4          D                   A7sus4
  E E E E E E E E   E E E E E E E E   E E E E E E E E   E E E E E E E E
|-5-5-5-5-5-5-5-5-|-5-3-3-3-3-3-3---|-5-5-5-5-5-5-5-5-|-5-3-3-3-3-3-3----|
|-7-7-7-7-7-7-7-7-|-7-3-3-3-3-3-0---|-7-7-7-7-7-7-7-7-|-7-3-3-3-3-3-0----|
|-7-7-7-7-7-7-7-7-|-7-2-2-2-2-2-2-2-|-7-7-7-7-7-7-7-7-|-7-2-2-2-2-2-2-2--|
|-0---------------|-----------------|-0-------0-------|------------------|
|-----------------|---0---0-0-0-0-0-|-------0---------|---0---0-0-0-0-0--|
|-----------------|-----------------|-----------------|------------------|


  C                   Fmaj7   G       D                   A7sus4
  E E E E E E E E   E E E E E E E E   E E E E E E E E   E E E E E E E E
|-3-3-3-3-3-3-3-3-|-3-5-5-5-5-3-3-3-|-5-5-5-5-5-5-5-5-|-5-3-3-3-3-3-3----|
|-5-5-5-5-5-5-5-5-|-5-5-5-5-5-3-3-3-|-7-7-7-7-7-7-7-7-|-7-3-3-3-3-3-0----|
|-5-5-5-5-5-5-5-5-|-5-5-5-5-5-4-4-4-|-7-7-7-7-7-7-7-7-|-7-2-2-2-2-2-2-2--|
|-----------------|---3-3-3-3-5-5-5-|-0-------0-------|------------------|
|-3-------3-------|-----------------|-------0---------|---0---0-0-0-0-0--|
|-------3---------|-----------------|-----------------|------------------|


  D                   A7sus4          C                   Fmaj7   G
  E E E E E E E E   E E E E E E E E   E E E E E E E E   E E E E E E E E
|-5-5-5-5-5-5-5-5-|-5-3-3-3-3-3-3---|-3-3-3-3-3-3-3-3-|-3-5-5-5-5-3-3-3--|
|-7-7-7-7-7-7-7-7-|-7-3-3-3-3-3-0---|-5-5-5-5-5-5-5-5-|-5-5-5-5-5-3-3-3--|
|-7-7-7-7-7-7-7-7-|-7-2-2-2-2-2-2-2-|-5-5-5-5-5-5-5-5-|-5-5-5-5-5-4-4-4--|
|-0-------0-------|-----------------|-----------------|---3-3-3-3-5-5-5--|
|-------0---------|---0---0-0-0-0-0-|-3-------3-------|------------------|
|-----------------|-----------------|-------3---------|------------------|


                    Chorus
    Fmaj7   G        Ab
  E E E E E E E E     E  E  E  E  E  E  E  E
|-3-5-5-5-5-3-3-3-||--8--8--8--8--8--8--8--8-|
|-3-5-5-5-5-3-3-3-||--9--9--9--9--9--9--9--9-|
|-4-5-5-5-5-4-4-4-||--8--8--8--8--8--8--8--8-|
|-5-3-3-3-3-5-5-5-||-10-10-10-10-10-10-10-10-|
|-----------------||-------------------------|
|-----------------||-------------------------|


  Bbadd2                    Gm
   E  E  E  E  E  E  E  E    E  E  E  E  E  E  E  E
|--8--8--8--8--8--8--8--8-|-------------------------|
|-11-11-11-11-11-11-11-11-|-11-11-11-11-11-11-11-11-|
|-10-10-10-10-10-10-10-10-|-12-12-12-12-12-12-12-12-|
|-12-12-12-12-12-12-12-12-|-12-12-12-12-12-12-12-12-|
|-------------------------|-10--------9-10-------10-|
|-------------------------|-------------------------|


  C     Cadd9 C          Ab
  E E E  E  E  E  E  E    E  E  E  E  E  E  E  E
|-8-8-8-10-10--8--8--8-|--8--8--8--8--8--8--8--8-|
|-8-8-8--8--8--8--8--8-|--9--9--9--9--9--9--9--9-|
|-9-9-9--9--9--9--9--9-|--8--8--8--8--8--8--8--8-|
|-------10-10-10-10-10-|-10-10-10-10-10-10-10-10-|
|----------------------|-------------------------|
|-8-8-8----------------|-------------------------|


  Bbadd2                    Gm
   E  E  E  E  E  E  E  E    E  E  E  E  E  E  E  E
|--8--8--8--8--8--8-------|-------------------------|
|-11-11-11-11-11-11-11-11-|-11-11-11-11-11-11-11-11-|
|-10-10-10-10-10-10-10-10-|-12-12-12-12-12-12-12-12-|
|-12-12-12-12-12-12-12-12-|-12-12-12-12-12-12-12-12-|
|--------------------8--9-|-10--------9-10--------9-|
|-------------------------|-------------------------|


              C         Gm
   E  E  E  E E E E E    E  E  E  E  E  E  E  E
|-------------8-8-8-8-|-------------------------|
|-11-11-11-11-8-8-8-8-|-11-11-11-11-11-11-11-11-|
|-12-12-12-12-9-9-9-9-|-12-12-12-12-12-12-12-12-|
|-12-12-12-12---------|-12-12-12-12-12-12-12-12-|
|-10--9-10------------|-10--------9-10--------9-|
|-------------8-------|-------------------------|
|
| Gtr III (Clean El. Gtr.)
|  W                     W
|---------------------|-------------------------|
|---------------------|-------------------------|
|---------------------|-------------------------|
|---------------------|-------------------------|
|---------------------|-------------------------|
|---------------------|-------------------------|


                        2nd Verse
              C          D
   E  E  E  E E E E E    E E E E E E E E
|-------------8-8-8-8-||-5-5-5-5-5-5-5-5--|
|-11-11-11-11-8-8-8-8-||-7-7-7-7-7-7-7-7--|
|-12-12-12-12-9-9-9-9-||-7-7-7-7-7-7-7-7--|
|-12-12-12-12---------||-0-----0-0--------|
|-10--9-10------------||------------------|
|-------------8-------||------------------|
|
|                        PM------------|
|  W                     Q   E E E E E E
|---------------------||------------------|
|---------------------||------------------|
|---------------------||------------------|
|---------------------||-7---9-7---7-9-7--|
|---------------------||-5---5-5---5-5-5--|
|---------------------||------------------|


    A7sus4            D                   A7sus4            C
  E E E E  E  E E E   E E E E E E E E   E E E E  E  E E E   E E E E E E E E
|-5-3-3-3--3--3-3---|-5-5-5-5-5-5-5-5-|-5-3-3-3--3--3-3---|-3-3-3-3-3-3-3-3--|
|-7-3-3-3--3--3-0---|-7-7-7-7-7-7-7-7-|-7-3-3-3--3--3-0---|-5-5-5-5-5-5-5-5--|
|-7-2-2-2--2--2-2-2-|-7-7-7-7-7-7-7-7-|-7-2-2-2--2--2-2-2-|-5-5-5-5-5-5-5-5--|
|-------------------|-0-----0-0-------|-------------------|------------------|
|---0---0--0--0-0-4-|-----------------|---0---0--0--0-0-0-|-3-----3-3--------|
|-------------------|-----------------|-------------------|------------------|
|
|   PM------------------------------|     PM------------------------------|
| E E E E +E  E E E   E E E E E E E E   E E E E +E  E E E   E E E E E E E E
|-------------------|-----------------|-------------------|------------------|
|-------------------|-----------------|-------------------|------------------|
|-------------------|-----------------|-------------------|------------------|
|-------------------|-7-7-9-7---7-9-7-|-------------------|-5-5-7-5-5-5-7-5--|
|---7-9-7-(7)-----4-|-5-5-5-5---5-5-5-|---7-9-7-(7)-------|-3-3-3-3-3-3-3-3--|
|---5-5-5-(5)-5-5---|-----------------|---5-5-5-(5)-5-5-7-|------------------|


                    Interlude
    Fmaj7   G        D                   A7sus4          D
  E E E E E E E E    E E E E E E E E   E E E E E E E E   E E E E E E E E
|-3-5-5-5-5-3-3-3-||-----5-------5---|-----------------|-----5-------5----|
|-5-5-5-5-5-3-3-3-||-----7-------7---|---8---8-8-------|-----7-------7----|
|-5-5-5-5-5-4-4-4-||-----7-------7---|---7---7-7-6-6-6-|-----7-------7----|
|---3-3-3-3-5-5-5-||-0-0---0-0-0---0-|-0-7---7-7-7-7-7-|-0-0---0-0-0---0--|
|-----------------||-----------------|---0-0-0-0-0-0-0-|------------------|
|-----------------||-----8-------8---|-----------------|-----8-------8----|
|
| PM-------------------------------------------------------------------|
| E E E E E E Q      E E E E E E E E   E E E E E E E E   E E E E E E E E
|-----------------||-----------------|-----------------|------------------|
|-----------------||-----------------|-----------------|------------------|
|-----------------||-----------------|-----------------|------------------|
|-5---------------||-7-7-9-7-7-7-9-7-|-7---------------|-7-7-9-7-7-7-9-7--|
|-3-3-3-3---5-5---||-5-5-5-5-5-5-5-5-|-5-7-9-7-7-7-9-7-|-5-5-5-5-5-5-5-5--|
|---1-1-1---3-3---||-----------------|---5-5-5-5-5-5-5-|------------------|


  A7sus4            C
  E E E E E E E E   E E  E E E E  E E
|-----------------|-------------------|
|---8---8-8-------|------8--------8---|
|---7---7-7-6-6-6-|------9--------9---|
|-0-7---7-7-7-7-7-|-----10-------10---|
|---0-0-0-0-0-0-0-|-------------------|
|-----------------|-8-8--7-8-8-8--7-8-|
|
| PM--------------------------------|
| E E E E E E E E   E E  E E E E  E E
|-----------------|-------------------|
|-----------------|-------------------|
|-----------------|-------------------|
|-7---------------|-5-5--7-5-5-5--7-5-|
|-5-7-9-7-7-7-7---|-3-3--3-3-3-3--3-3-|
|---5-5-5-5-5-5-7-|-------------------|


                         Chorus
    F          G          Ab
  E  E E  E  E  E  E E     E  E  E  E  E  E  E  E
|----------------------||--8--8--8--8--8--8--8--8-|
|---10---10-10--8--8---||--9--9--9--9--9--9--9--9-|
|---10---10-10--7--7---||--8--8--8--8--8--8--8--8-|
|---10---10-10--9--9---||-10-10-10-10-10-10-10-10-|
|----8----8--8-10-10---||-------------------------|
|-8--------------------||-------------------------|
|
|    PM   PM    PM|
| E  E E  E  E  E  Q       W
|----------------------||-------------------------|
|----------------------||-------------------------|
|----------------------||-------------------------|
|----------------------||-------------------------|
|----3----3-----5--5---||-------------------------|
|----1----1-----3--3---||-------------------------|


  Bbadd2                    Gm
   E  E  E  E  E  E  E  E    E  E  E  E  E  E  E  E
|--8--8--8--8--8--8--8--8-|-------------------------|
|-11-11-11-11-11-11-11-11-|-11-11-11-11-11-11-11-11-|
|-10-10-10-10-10-10-10-10-|-12-12-12-12-12-12-12-12-|
|-12-12-12-12-12-12-12-12-|-12-12-12-12-12-12-12-12-|
|-------------------------|-10--------9-10-------10-|
|-------------------------|-------------------------|


  C     Cadd9 C          Ab
  E E E  E  E  E  E  E    E  E  E  E  E  E  E  E
|-8-8-8-10-10--8--8--8-|--8--8--8--8--8--8--8--8-|
|-8-8-8--8--8--8--8--8-|--9--9--9--9--9--9--9--9-|
|-9-9-9--9--9--9--9--9-|--8--8--8--8--8--8--8--8-|
|-------10-10-10-10-10-|-10-10-10-10-10-10-10-10-|
|----------------------|-------------------------|
|-8-8-8----------------|-------------------------|


  Bbadd2                    Gm
   E  E  E  E  E  E  E  E    E  E  E  E  E  E  E  E
|--8--8--8--8--8--8-------|-------------------------|
|-11-11-11-11-11-11-11-11-|-11-11-11-11-11-11-11-11-|
|-10-10-10-10-10-10-10-10-|-12-12-12-12-12-12-12-12-|
|-12-12-12-12-12-12-12-12-|-12-12-12-12-12-12-12-12-|
|--------------------8--9-|-10--------9-10--------9-|
|-------------------------|-------------------------|


              C         Gm
                                                 2/4
   E  E  E  E E E E E    E  E  E  E  E  E  E  E    E  E  E  E
|-------------8-8-8-8-|-------------------------|-------------||
|-11-11-11-11-8-8-8-8-|-11-11-11-11-11-11-11-11-|-11-11-11-11-||
|-12-12-12-12-9-9-9-9-|-12-12-12-12-12-12-12-12-|-12-12-12-12-||
|-12-12-12-12---------|-12-12-12-12-12-12-12-12-|-12-12-12-12-||
|-10--9-10------------|-10--------9-10--------9-|-10--9-10----||
|-------------8-------|-------------------------|-------------||


 Bridge
  C
 4/4
   E E E E E E E E     E  E E E E E  E  E
|--8-8-8-8-8-8-8-8-|---8--8-8-8-8-8--8--8-|
|--8-8-8-8-8-8-8-8-|---8--8-8-8-8-8--8--8-|
|--9-9-9-9-9-9-9-9-|---9--9-9-9-9-9--9--9-|
|------------------|----------------------|
|------------------|----------------------|
|--8---------------|----------------------|
|
| Gtr IV (El. Piano arr. for Gtr.)
|  W                  +H.            E  E
|-20---------------|-(20)-----------15-17-|
|------------------|----------------------|
|------------------|----------------------|
|------------------|----------------------|
|------------------|----------------------|
|------------------|----------------------|


  Bbadd9/C
   E  E E E E E  E  E    E  E  E  E E E E E
|--8--8-8-8-8-8--8--8-|--8--8--8--8-8-8-8-8--|
|--6--6-6-6-6-6--6--6-|--6--6--6--6-6-6-6-6--|
|--7--7-7-7-7-7--7--7-|--7--7--7--7-7-7-7-7--|
|---------------------|----------------------|
|---------------------|----------------------|
|--8------------------|----------------------|
|
|  H.            E  E    E  E  H.
|-18------------------|----------------------|
|---------------18p17-|-18p17----------------|
|---------------------|-------17-------------|
|---------------------|----------------------|
|---------------------|----------------------|
|---------------------|----------------------|


  E  E E E E  E E E    E E E  E E  E  E  E
|-8--8-8-8-8--8-8-8-|--8-8-8--8-8-10-10----|
|-6--6-6-6-6--6-6-6-|--6-6-6--6-6--6--6--6-|
|-7--7-7-7-7--7-7-7-|--7-7-7--7-7--7--7--7-|
|-------------------|----------------------|
|-------------------|----------------------|
|-8-----------------|----------------------|
|
| E  E Q   E  E Q      E E E  E Q     E  E
|-------------------|----------------------|
|---18-------17-----|-18-----17------18----|
|-------------------|-------------------17-|
|-------------------|----------------------|
|-------------------|----------------------|
|-------------------|----------------------|


     C
      E E     E  E E E E E   E E E E E E E E
|-----8-8-----8--8-8-8-8-8-|-8-8-8-8-8-8-8-8-|
|-----8-8-----8--8-8-8-8-8-|-8-8-8-8-8-8-8-8-|
|-----9-9-----9--9-9-9-9-9-|-9-9-9-9-9-9-9-9-|
|--------------------------|-----------------|
|--------------------------|-----------------|
|-----8--------------------|-----------------|
|
|  a  Q    a  H.             W
|--------------------------|-----------------|
|-19s20---19s20------------|-----------------|
|--------------------------|-----------------|
|--------------------------|-----------------|
|--------------------------|-----------------|
|--------------------------|-----------------|


      E  E E  E     E  E E E       E  E E  E     E  E E E
|-----8--8-8--8-----8--8-8-8-|-----8--8-8--8-----8--8-8-8-|
|-----8--8-8--8-----8--8-8-8-|-----8--8-8--8-----8--8-8-8-|
|-----9--9-9--9-----9--9-9-9-|-----9--9-9--9-----9--9-9-9-|
|----------------------------|----------------------------|
|----------------------------|----------------------------|
|-----8----------------------|----------------------------|
|
|  a  E  E E  E  a  E  E Q      a  E  E E  E  a  E  E Q
|-------15---17--------------|-------15---17--------------|
|-16s17---------16s17--------|-16s17---------16s17--------|
|---------------------17-----|---------------------17-----|
|----------------------------|----------------------------|
|----------------------------|----------------------------|
|----------------------------|----------------------------|


  Bbadd9/C
  E E E E E E E E   E E E E E E E E
|-8-8-8-8-8-8-8-8-|-8-8-8-8-8-8-8-8-|
|-6-6-6-6-6-6-6-6-|-6-6-6-6-6-6-6-6-|
|-7-7-7-7-7-7-7-7-|-7-7-7-7-7-7-7-7-|
|-----------------|-----------------|
|-----------------|-----------------|
|-8---------------|-----------------|
|
| W                 W
|-----------------|-----------------|
|-----------------|-----------------|
|-----------------|-----------------|
|-----------------|-----------------|
|-----------------|-----------------|
|-----------------|-----------------|


                                         C
  E E E E E E E E   E E  E E  E  E E E   E E E E E E E E   E E E E E E E E
|-8-8-8-8-8-8-8-8-|-8-8--8-8--8--8-8-8-|-8-8-8-8-8-8-8-8-|-8-8-8-8-8-8-8-8-|
|-6-6-6-6-6-6-6-6-|-6-6--6-6--6--6-6-6-|-8-8-8-8-8-8-8-8-|-8-8-8-8-8-8-8-8-|
|-7-7-7-7-7-7-7-7-|-7-7--7-7--7--7-7-7-|-9-9-9-9-9-9-9-9-|-9-9-9-9-9-9-9-9-|
|-----------------|--------------------|-----------------|-----------------|
|-----------------|--------------------|-----------------|-----------------|
|-8---------------|--------8-----8-----|-8---------------|-----------------|
|
| W                 Q    Q    E  E Q     W                 W
|-----------------|-----17---15-13-----|-----------------|-----------------|
|-----------------|-----18---17-15-----|-----------------|-----------------|
|-----------------|--------------------|-----------------|-----------------|
|-----------------|--------------------|-----------------|-----------------|
|-----------------|--------------------|-----------------|-----------------|
|-----------------|--------------------|-----------------|-----------------|


                                        Bbadd9/C
  E E E E E E E E   E E E E   E E E E   E E E E E E E E   E E E E E E E E
|-8-8-8-8-8-8-8-8-|-8-8-8-8---8-8-8-8-|-8-8-8-8-8-8-8-8-|-8-8-8-8-8-8-8-8--|
|-8-8-8-8-8-8-8-8-|-8-8-8-8---8-8-8-8-|-6-6-6-6-6-6-6-6-|-6-6-6-6-6-6-6-6--|
|-9-9-9-9-9-9-9-9-|-9-9-9-9---9-9-9-9-|-7-7-7-7-7-7-7-7-|-7-7-7-7-7-7-7-7--|
|-----------------|-------------------|-----------------|------------------|
|-----------------|-------------------|-----------------|------------------|
|-8---------------|-------------------|-8---------------|------------------|
|
| W                 H       a E E Q     W                 W
|-----------------|-------------------|-----------------|------------------|
|-----------------|-------------8-8---|-----------------|------------------|
|-----------------|---------8s9-------|-----------------|------------------|
|-----------------|-------------------|-----------------|------------------|
|-----------------|-------------------|-----------------|------------------|
|-----------------|-------------------|-----------------|------------------|


                                      C
  E E E E E E E E   E E E E E E E E   E E E E E E E E   E E E E E E E E
|-8-8-8-8-8-8-8-8-|-8-8-8-8-8-8-8-8-|-8-8-8-8-8-8-8-8-|-8-8-8-8-8-8-8-8-|
|-6-6-6-6-6-6-6-6-|-6-6-6-6-6-6-6-6-|-8-8-8-8-8-8-8-8-|-8-8-8-8-8-8-8-8-|
|-7-7-7-7-7-7-7-7-|-7-7-7-7-7-7-7-7-|-9-9-9-9-9-9-9-9-|-9-9-9-9-9-9-9-9-|
|-----------------|-----------------|-----------------|-----------------|
|-----------------|-----------------|-----------------|-----------------|
|-8---------------|-------8---8-----|-8---------------|-----------------|


                                      Bbadd9/C
  E E E E E E E E   E E E E E E E E   E E E E E E E E   E E E E  E  E E E
|-8-8-8-8-8-8-8-8-|-8-8-8-8-8-8-8-8-|-8-8-8-8-8-8-8-8-|-8-8-8-8--8--8-8-8-|
|-8-8-8-8-8-8-8-8-|-8-8-8-8-8-8-8-8-|-6-6-6-6-6-6-6-6-|-6-6-6-6--6--6-6-6-|
|-9-9-9-9-9-9-9-9-|-9-9-9-9-9-9-9-9-|-7-7-7-7-7-7-7-7-|-7-7-7-7--7--7-7-7-|
|-----------------|-----------------|-----------------|-------------------|
|-----------------|-----------------|-----------------|-------------------|
|-8---------------|-----------------|-8---------------|-------------------|
|
| Gtr IV
| W                 W                 W                 H        E  E Q
|-----------------|-----------------|-----------------|---------20-20-----|
|-----------------|-----------------|-----------------|-------------------|
|-----------------|-----------------|-----------------|-------------------|
|-----------------|-----------------|-----------------|-------------------|
|-----------------|-----------------|-----------------|-------------------|
|-----------------|-----------------|-----------------|-------------------|


  E E E E E E E E   E E E E  E  E E E
|-8-8-8-8-8-8-8-8-|-8-8-8-8--8--8-8-8-|
|-6-6-6-6-6-6-6-6-|-6-6-6-6--6--6-6-6-|
|-7-7-7-7-7-7-7-7-|-7-7-7-7--7--7-7-7-|
|-----------------|-------------------|
|-----------------|-------------------|
|-8---------------|-------8-----8-----|
|
| W                 H        E  E Q
|-----------------|---------20-20-----|
|-----------------|-------------------|
|-----------------|-------------------|
|-----------------|-------------------|
|-----------------|-------------------|
|-----------------|-------------------|


  Csus4
   E  E  E  E  E  E  E  E    E  E  E  E  E  E  E  E
|-13-13-13-13-13-13-13-13-|-13-13-13-13-13-13-13-13-|
|-13-13-13-13-13-13-13-13-|-13-13-13-13-13-13-13-13-|
|-12-12-12-12-12-12-12-12-|-12-12-12-12-12-12-12-12-|
|-------------------------|-------------------------|
|-------------------------|-------------------------|
|-------------------------|-------------------------|
|
|  W                         W
|-------------------------|-------------------------|
|-------------------------|-------------------------|
|-------------------------|-------------------------|
|-------------------------|-------------------------|
|-------------------------|-------------------------|
|-------------------------|-------------------------|


                 Csus2
   E  E  E  E  E  E  E  E    E  E  E  E  E  E  E  E
|-13-13-13-13-13-10-10-10-|-13-13-13-10-10-10-13-13-|
|-13-13-13-13-13-13-13-13-|-13-13-13-13-13-13-13-13-|
|-12-12-12-12-12-12-12-12-|-12-12-12-12-12-12-12-12-|
|-------------------------|-------------------------|
|-------------------------|-------------------------|
|-------------------------|-------------------------|
|
| Gtr IV
|  W                         W
|-------------------------|-------------------------|
|-------------------------|-------------------------|
|-------------------------|-------------------------|
|-------------------------|-------------------------|
|-------------------------|-------------------------|
|-------------------------|-------------------------|


  Bb
   E  E  E  E  E  E  E  E    E   E  E  E   E   E  E  E
|-13-13-13-13-13-13-13-13-|-13--13-13-13--13--13-13-13-|
|-15-15-15-15-15-15-15-15-|-15--15-15-15--15--15-15-15-|
|-15-15-15-15-15-15-15-15-|-15--15-15-15--15--15-15-15-|
|-------------------------|----------------------------|
|-------------------------|----------------------------|
|-------------------------|----------------------------|
|
|  W                         Q.        E  +Q      Q
|-------------------------|-22--------18-(18)----------|
|-------------------------|----------------------18----|
|-------------------------|----------------------------|
|-------------------------|----------------------------|
|-------------------------|----------------------------|
|-------------------------|----------------------------|


                              Bb/A
    E   E  E  E  E  E  E  E     E   E  E  E  E  E  E  E
|--10--10-10-10-10-10-10-10-|--10--10-10-10-10-10-10----|
|--11--11-11-11-11-11-11-11-|--11--11-11-11-11-11-11----|
|--10--10-10-10-10-10-10-10-|--14--14-14-14-14-14-14----|
|---------------------------|------------------------12-|
|---------------------------|---------------------------|
|---------------------------|---------------------------|
|
|  +W                          +W
|---------------------------|---------------------------|
|-(18)----------------------|-(18)----------------------|
|---------------------------|---------------------------|
|---------------------------|---------------------------|
|---------------------------|---------------------------|
|---------------------------|---------------------------|


  C                       F/A             F/C
   E   E  E  E   E   E  E  E     E   E  E  E  E  E  E  E
|-12--12-12-12--12--12-12-13-|--13--13-13-17-17-13-13-13-|
|-13--13-13-13--13--13-13-13-|--13--13-13-18-18-13-13-13-|
|-12--12-12-12--12--12-12-14-|--14--14-14-17-17-14-14-14-|
|----------------------------|---------------------------|
|----------------------------|---------------------------|
|----------------------------|---------------------------|
|
|  Q.        E  +Q      Q       +W
|-[5]-------20-(20)----------|---------------------------|
|----------------------20----|-(20)----------------------|
|----------------------------|---------------------------|
|----------------------------|---------------------------|
|----------------------------|---------------------------|
|----------------------------|---------------------------|


  C
   E  E  E  E  E  E  E  E    E  E  E  E  E  E  E  E
|-12-12-12-12-12-12-12-12-|-12-12-12-12-12-12-12-12-|
|-13-13-13-13-13-13-13-13-|-13-13-13-13-13-13-13-13-|
|-12-12-12-12-12-12-12-12-|-12-12-12-12-12-12-12-12-|
|-------------------------|-------------------------|
|-------------------------|-------------------------|
|-------------------------|-------------------------|
|
|  W                         W
|-------------------------|-------------------------|
|-------------------------|-------------------------|
|-------------------------|-------------------------|
|-------------------------|-------------------------|
|-------------------------|-------------------------|
|-------------------------|-------------------------|


  Bb5/G
   E  E  E  E  E  E  E  E    E   E  E  E   E   E  E  E
|-13-13-13-13-13-13-13-13-|-13--13-13-13--13--13-13-13-|
|-11-11-11-11-11-11-11-11-|-11--11-11-11--11--11-11-11-|
|-12-12-12-12-12-12-12-12-|-12--12-12-12--12--12-12-12-|
|-------------------------|----------------------------|
|-------------------------|----------------------------|
|-------------------------|----------------------------|
|
|  W                         Q.        E  +Q      Q
|-------------------------|-22--------18-(18)----------|
|-------------------------|----------------------18----|
|-------------------------|----------------------------|
|-------------------------|----------------------------|
|-------------------------|----------------------------|
|-------------------------|----------------------------|


                                                     Bb5/A
    E   E  E  E  E  E  E  E     E   E  E  E  E  E  E  E
|--13--13-13-13-13-13-13-13-|--13--13-13-13-13-13-13-13-|
|--11--11-11-11-11-11-11-11-|--11--11-11-11-11-11-11-11-|
|--12--12-12-12-12-12-12-12-|--10--10-10-10-10-10-10-14-|
|---------------------------|---------------------------|
|---------------------------|---------------------------|
|---------------------------|---------------------------|
|
|  +W                          +W
|---------------------------|---------------------------|
|-(18)----------------------|-(18)----------------------|
|---------------------------|---------------------------|
|---------------------------|---------------------------|
|---------------------------|---------------------------|
|---------------------------|---------------------------|


                            C                    F/A
   E  E  E  E  E  E  E  E    E  E  E  E  E  E  E  E
|-13-13-13-13-13-13-13-13-|-12-12-12-12-12-12-12-13-|
|-11-11-11-11-11-11-11-11-|-13-13-13-13-13-13-13-13-|
|-14-14-14-14-14-14-14-14-|-12-12-12-12-14-12-12-14-|
|-------------------------|-------------------------|
|-------------------------|-------------------------|
|-------------------------|-------------------------|
|
|  W                         W
|-------------------------|-------------------------|
|-------------------------|-------------------------|
|-------------------------|-------------------------|
|-------------------------|-------------------------|
|-------------------------|-------------------------|
|-------------------------|-------------------------|


                                  F/C      C
   E  E  E  E  E  E  E  E    E  E  E  E  E  E  E  E
|-13-13-13-17-17-13-13-13-|-------------------------|
|-13-13-13-13-13-13-13-13-|-------10----10--8-------|
|-14-14-14-14-14-14-14-14-|-------10----10--9-------|
|-------------------------|-10-10-10-10-10-10-10-10-|
|-------------------------|-------------------------|
|-------------------------|-------------------------|


  F/C      C                F/D            Em/D
   E  E  E  E  E  E  E  E    E  E  E  E  E  E  E  E
|-----------------8--8--8-|-------------------------|
|-10----10--8-----8--8--8-|-------10----10--8-------|
|-10----10--9-----9--9--9-|-------10----10--9-------|
|-10-10-10-10-10-10-10-10-|-12-12-12-12-12-12-12-12-|
|-------------------------|-------------------------|
|-------------------------|-------------------------|


  F/D      Em/D  Bb/D             F/D      Em/D
   E  E  E  E  E  E  E  E    E  E  E  E  E  E  E  E
|-------------------------|-------------------------|
|-10----10--8----11-11-11-|-------10----10--8-------|
|-10----10--9----10-10-10-|-------10----10--9-------|
|-12-12-12-12-12-12-12-12-|-12-12-12-12-12-12-12-12-|
|-------------------------|-------------------------|
|-------------------------|-------------------------|


  F/D      Em/D  Bb/D             F/C      C
   E  E  E  E  E  E  E  E    E  E  E  E  E  E  E  E
|-------------------------|-------------------------|
|-10----10--8----11-11-11-|-------10----10--8-------|
|-10----10--9----10-10-10-|-------10----10--9-------|
|-12-12-12-12-12-12-12-12-|-10-10-10-10-10-10-10-10-|
|-------------------------|-------------------------|
|-------------------------|-------------------------|


  F/C      C                      F/C      C
   E  E  E  E  E  E  E  E    E  E  E  E  E  E  E  E
|-----------------8--8--8-|-------------------------|
|-10----10--8-----8--8--8-|-------10----10--8-------|
|-10----10--9-----9--9--9-|-------10----10--9-------|
|-10-10-10-10-10-10-10-10-|-10-10-10-10-10-10-10-10-|
|-------------------------|-------------------------|
|-------------------------|-------------------------|


  F/C      C                      F/D      Em/D
   E  E  E  E  E  E  E  E    E  E  E  E  E  E  E  E
|-----------------8--8--8-|-------------------------|
|-10----10--8-----8--8--8-|-------10----10--8-------|
|-10----10--9-----9--9--9-|-------10----10--9-------|
|-10-10-10-10-10-10-10-10-|-12-12-12-12-12-12-12-12-|
|-------------------------|-------------------------|
|-------------------------|-------------------------|


  F/D      Em/D  Bb/D             F/D      Em/D
   E  E  E  E  E  E  E  E    E  E  E  E  E  E  E  E
|-------------------------|-------------------------|
|-10----10--8----11-11-11-|-------10----10--8-------|
|-10----10--9----10-10-10-|-------10----10--9-------|
|-12-12-12-12-12-12-12-12-|-12-12-12-12-12-12-12-12-|
|-------------------------|-------------------------|
|-------------------------|-------------------------|


                             3rd Verse
  F/D      Em/D  Bb/D         D
   E  E  E  E  E  E  E  E     E E E E E E E E
|-------------------------||--5-5-5-5-5-5-5-5--|
|-10----10--8----11-11-11-||o-7-7-7-7-7-7-7-7--|
|-10----10--9----10-10-10-||--7-7-7-7-7-7-7-7--|
|-12-12-12-12-12-12-12-12-||--0-----0-0--------|
|-------------------------||o------------------|
|-------------------------||-------------------|


    A7sus4          D                   A7sus4          C
  E E E E E E E E   E E E E E E E E   E E E E E E E E   E E E E E E E E
|-5-3-3-3-3-3-3---|-5-5-5-5-5-5-5-5-|-5-3-3-3-3-3-3---|-3-3-3-3-3-3-3-3--|
|-7-3-3-3-3-3-0---|-7-7-7-7-7-7-7-7-|-7-3-3-3-3-3-0---|-5-5-5-5-5-5-5-5--|
|-7-2-2-2-2-2-2-2-|-7-7-7-7-7-7-7-7-|-7-2-2-2-2-2-2-2-|-5-5-5-5-5-5-5-5--|
|-----------------|-0-----0-0-------|-----------------|------------------|
|---0---0-0-0-0-4-|-----------------|---0---0-0-0-0-0-|-3-----3-3--------|
|-----------------|-----------------|-----------------|------------------|


  1.                 2.
    Fmaj7   G           Fmaj7   G        Fmaj7   G
                                      3/4
                                                   Gt
  E E E E E E E E     E E E E E E Q    E E E E E E
|-3-5-5-5-5-3-3-3--||-3-5-5-5-5-3-3--|---5-5-5-5-3-||
|-5-5-5-5-5-3-3-3-o||-5-5-5-5-5-3-3--|---5-5-5-5-3-||
|-5-5-5-5-5-4-4-4--||-5-5-5-5-5-4-4--|---5-5-5-5-4-||
|---3-3-3-3-5-5-5--||---3-3-3-3-5-5--|---3-3-3-3-5-||
|-----------------o||----------------|-------------||
|------------------||----------------|-------------||
|
| Gtr II
| W                   W                W
|------------------||----------------|-------------||
|-----------------o||----------------|-------------||
|------------------||----------------|-------------||
|------------------||----------------|-------------||
|-----------------o||----------------|-------------||
|------------------||----------------|-------------||


 Outro
  G
 5/4
 r II
   E   E   Q       H                Q
|--3----------------------------------------|
|--3----------------------------------------|
|--4----------------------------------------|
|--5----------------------------------------|
|-------------------------------------------|
|-------------------------------------------|
|
|  E   E   E   E   E   E   E   E    E   E
|---------------------------------<12>------|
|-----------------------------<7>-----------|
|-------------<4>-----<7>-[5]----------<7>--|
|-[3]-[3]-[3]-----[3]-----------------------|
|-------------------------------------------|
|-------------------------------------------|


  N.C.
   E   E   E   E   E   E   E   E    E   E     E   E   E   E   E   E   E   E    E   E
|---------------------------------<12>-----|---------------------------------<12>-----|
|-----------------------------<7>----------|-----------------------------<7>----------|
|-------------<4>-----<7>-[5]----------<7>-|-------------<4>-----<7>-[5]----------<7>-|
|-[3]-[3]-[3]-----[3]----------------------|-[3]-[3]-[3]-----[3]----------------------|
|------------------------------------------|------------------------------------------|
|------------------------------------------|------------------------------------------|


   E   E   E   E   E   E   E   E    E   E     E   E   E   E   E   E   E   E    E   E
|---------------------------------<12>-----|---------------------------------<12>-----*|
|-----------------------------<7>----------|-----------------------------<7>----------*|
|-------------<4>-----<7>-[5]----------<7>-|-------------<4>-----<7>-[5]----------<7>-*|
|-[3]-[3]-[3]-----[3]----------------------|-[3]-[3]-[3]-----[3]----------------------*|
|------------------------------------------|------------------------------------------*|
|------------------------------------------|------------------------------------------*|            
Submit corrections

↑ Back to top | Tablatures and chords for acoustic guitar and electric guitar, ukulele, drums are parodies/interpretations of the original songs. You may use it for private study, scholarship, research or language learning purposes only