Home » S » Superjesus »

Superjesus - Shut My Eyes Tabs

Artists:  A B C D E F G H I J K L M N O P Q R S T U V W X Y Z # 

Shut My Eyes Tabs

(ver. 2) Click to play this song!
Superjesus
Shut My Eyes - The Superjesus
Tuning: DADGBE

Intro:

E--------------------------------|
B--------------------------------|
G--------4---------7-------------| x4
D--------4---------7-------------|
A--------2---------5-------------|
D--------------------------------|

Verse1:

Hey look around........
E--------------------------------|
B--------------------------------|
G--------4---------7-------------| x4 
D--------4---------7-------------|
A--------2---------5-------------|
D--------------------------------|

What did you say........
E--------------------------------|
B--------------------------------|
G---4----------------------------| x4
D---4----5----7------------------|
A---2----5----7------------------|
D--------5----7------------------|

I'm shaking............
E--------------------|
B--------------------|
G-----9--------------|
D-----9--------------|
A-----7--------------|
D--------------------|

Chorus:
Lay in dust around me......
E--------------------------------|
B--------------------------------|
G---4----7----9------------------| x2
D---4----7----9----5----7--------|
A---2----5----7----5----7--------|
D------------------5----7--------|

Verse2:

I'm looking out, looking in......
E--------------------------------|
B--------------------------------|
G--------4---------7-------------| x4 
D--------4---------7-------------|
A--------2---------5-------------|
D--------------------------------|

I take a rest, take a breath......
E--------------------------------|
B--------------------------------|
G---4----------------------------| x4
D---4----5----7------------------|
A---2----5----7------------------|
D--------5----7------------------|

Pre-Chorus:
After all there's nothing left to say......
E--------------------------------|
B--------------------------------|
G----9-----------7-----5-----9---|
D----9-----5-----7-----5-----9---|
A----7-----5-----5-----3-----7---|
D----------5---------------------|

Sleep beneath the thought of yesterday.

E--------------------|
B--------------------|
G----------7---------|
D-----5----7---------|
A-----5----5---------|
D-----5--------------|

Chorus

Instrumental

Chorus

End bit:

Shut my eyes..............
E--------------------------------|
B--------------------------------|
G--------4-----------x-----------| x4 
D--------4-----5-----x-----------|
A--------2-----5-----x-----------|
D--------------5-----------------|

Shut my eyes...............
E--------------------------------|
B--------------------------------|
G--------4-----------------------| x4 
D--------4-----5-----7-----------|
A--------2-----5-----7-----------|
D--------------5-----7-----------|
            
Submit corrections

↑ Back to top | Tablatures and chords for acoustic guitar and electric guitar, ukulele, drums are parodies/interpretations of the original songs. You may use it for private study, scholarship, research or language learning purposes only