» » »

Superheist - Uncanny Decadence Tabs

Artists:  A B C D E F G H I J K L M N O P Q R S T U V W X Y Z # 

Uncanny Decadence Tabs

(ver. 1) Click to play this song!
Superheist
 Rating:
4/5 (4 votes)


 Uncanny Decadence lessons Tabs too difficult? Try these video lessons and learn fast
 
                
TUNING: Drop D down 3 steps (A E A D F# B) on a six string or Drop A (A E A D F# B E) On a seven string

KEY:
x = dead note
pm .= palm mute
h = hammer on
p = Pull Off
/ = slide up
\ = Slide down

INTRO A:
e|---|
B|---|
G|---|
D|---|
A|-4~|
E|-4~|
A|-4~|

INTRO B:
e|---------|
B|---------|
G|---------|
D|---------|
A|---------|
E|---------|
A|-12\\\0--|
(Trem pick this, don't just slide)

MAIN RIFF:
e|-------------------------------|
B|-------------------------------|
G|-------------------------------|
D|-------------------------------|
A|-5-4-4-5-4-4-5-4-5-4-4-5-22-22-|
E|-5-4-4-5-4-4-5-4-5-4-4-5-22-22-|
A|-5-4-4-5-4-4-5-4-5-4-4-5-22-22-|
(Note: its 2's at the end not 22's)

VERSE:
e|-------------------------------|
B|-------------------------------|
G|-------------------------------|
D|-------------------------------|
A|-5-4-4-5-4-4-5-4-5-4-4-5-22-22-|
E|-5-4-4-5-4-4-5-4-5-4-4-5-22-22-|
A|-5-4-4-5-4-4-5-4-5-4-4-5-22-22-|
pm . . . . . . . . . . . . .. ..

PRECHORUS:
e|----------------------------------|
B|----------------------------------|
G|----------------------------------|
D|----------------------------------|
A|----------------------------------|
E|----------------------------------|
A|-5-4-4-4-5-4-5-4-5-4-4-4-5-2-x-xx-|

CHORUS:
e|--------------------------------------------|
B|--------------------------------------------|
G|--------------------------------------------|
D|--------------------------------------------|
A|--------------------------------------------|
E|-0------------------------------------------|
A|-0-0-000000-7-7-777777-3-3-333333-2-2-222222|

BRIDGE A:
e|---|
B|---|
G|---|
D|---|
A|-0-|
E|-0-|
A|-0-|
pm .

OUTRO:
e|-----------|
B|-----------|
G|-----------|
D|-----------|
A|-0-4-4-4-5-|
E|-0-4-4-4-5-|
A|-0-4-4-4-5-|
pm .


MAP:
INTRO A x 2
INTRO B x 1
MAIN RIFF x 4
VERSE x 1
MAIN RIFF x 1
VERSE x 1
MAIN RIFF x 1
PRECHORUS x 4
VERSE x 1
MAIN RIFF x 1
VERSE x 1
MAIN RIFF x 1
PRECHORUS x 4
CHORUS x 2
MAIN RIFF x 5
BRIDGE A x 1
CHORUS x 4
OUTRO x 4

This is tabbed from a live version. In the studio DW doesn't play the verse riff. So just play the main riff when it pops up. I prefer to play it the live way with the palm muted verse riff.
            
Submit corrections



        Uncanny Decadence lessons Hard to play? Try these video lessons and learn fast Uncanny Decadence lessons
        
↑ Back to top | Tablatures and chords for acoustic guitar and electric guitar, ukulele, drums are parodies/interpretations of the original songs. You may use it for private study, scholarship, research or language learning purposes only