» » »

Supergrass - Grace Bass

Artists:  A B C D E F G H I J K L M N O P Q R S T U V W X Y Z # 

Grace Bass

(ver. 1) Click to play this song!
Supergrass
 Rating:
4.3/5 (16 votes)

 Grace lessons Tabs too difficult? Try these video lessons and learn fast
 
                [Intro]
G|--------------------------|--------------------------|--------------------------|--------------------------|
D|--5-----------5--5--5--5--|--5--5--5--5--5--5--5--5--|--5--5--5--5--5--5--5--5--|--5--5--5--5--5--5--5--5--|
A|--------------------------|--------------------------|--------------------------|--------------------------|
E|--------------------------|--------------------------|--------------------------|--------------------------|

G|--------------------------|--------------------------|--------------------------|--------------------------|
D|--------------------------|--------------------------|--------------------------|--------------------------|
A|--------------------------|--------------------------|--5--5--5--5--5--5--5--5--|--5--5--5--5--5--5--5--5--|
E|--5--5--5--5--5--5--5--5--|--5--5--5--5--5--5--5--5--|--------------------------|--------------------------|

G|--------------------------|--------------------------|--------------------------|--------------------------|
D|--------------------------|--------------------------|--------------------------|--------------------------|
A|--------------------------|--------------------------|--5--5--5--5--5--5--5--5--|--5--5--5--5--5--5--5--5--|
E|--5--5--5--5--5--5--5--5--|--5--5--5--5--5--5--5--5--|--------------------------|--------------------------|

[Verse 1]
G|--------------------------|--------------------------|--------------------------|--------------------------|
D|--------------------------|--------------------------|--------------------------|--------------------------|
A|--------------------------|--------------------------|--5--5--5--5--5--5--5--5--|--5--5--5--5--5--5--5--5--|
E|--5--5--5--5--5--5--5--5--|--5--5--5--5--5--5--5--5--|--------------------------|--------------------------|

G|--------------------------|--------------------------|--------------------------|--------------------------|
D|--------------------------|--------------------------|--------------------------|--------------------------|
A|--------------------------|--------------------------|--5--5--5--5--5--5--5--5--|--5--5--5--5--5--5--5--5--|
E|--5--5--5--5--5--5--5--5--|--5--5--5--5--5--5--5--5--|--------------------------|--------------------------|

[Chorus 1]
G|--------------------------|--------------------------|--------------------------|--------------------------|
D|--------------------------|--------------------------|--------------------------|--------------------------|
A|--------------------------|--------------------------|--5--5--5--5--5--5--5--5--|--5--5--5--5--5--5--5--5--|
E|--5--5--5--5--5--5--5--5--|--5--5--5--5--5--5--5--5--|--------------------------|--------------------------|

G|--------------------------|--------------------------|--------------------------|--------------------------|
D|--------------------------|--------------------------|--------------------------|--------------------------|
A|--------------------------|--------------------------|--5--5--5--5--5--5--5--5--|--5--5--5--5--5--5--5--5--|
E|--5--5--5--5--5--5--5--5--|--5--5--5--5--5--5--5--5--|--------------------------|--------------------------|

[Post-Chorus 1]
G|--------------------------|--------------------------|--------------------------|--------------------------|
D|--------------------------|--------------------------|--------------------------|--------------------------|
A|--------------------------|--------------------------|--------------------------|--------------------------|
E|--3--3--3--3--3--3--3--3--|--3--3--3--3--3--3--3--3--|--5--5--5--5--5--5--5--5--|--5--5--5--5--5--5--5--5--|

G|--------------------------|----------------------------|
D|--------------------------|----------------------------|
A|--5-----5-----3-----3-----|-----------5----------------|
E|--------------------------|--3-------------------------|

[Verse 2]
G|--------------------------|--------------------------|--------------------------|--------------------------|
D|--------------------------|--------------------------|--------------------------|--------------------------|
A|--5--5--5--5--5--5--5--5--|--5--5--5--5--5--5--5--5--|--------------------------|--------------------------|
E|--------------------------|--------------------------|--5--5--5--5--5--5--5--5--|--5--5--5--5--5--5--5--5--|

G|--------------------------|--------------------------|--------------------------|--------------------------|
D|--------------------------|--------------------------|--------------------------|--------------------------|
A|--5--5--5--5--5--5--5--5--|--5--5--5--5--5--5--5--5--|--------------------------|--------------------------|
E|--------------------------|--------------------------|--5--5--5--5--5--5--5--5--|--5--5--5--5--5--5--5--5--|

[Chorus 2]
G|--------------------------|--------------------------|--------------------------|--------------------------|
D|--------------------------|--------------------------|--------------------------|--------------------------|
A|--------------------------|--------------------------|--5--5--5--5--5--5--5--5--|--5--5--5--5--5--5--5--5--|
E|--5--5--5--5--5--5--5--5--|--5--5--5--5--5--5--5--5--|--------------------------|--------------------------|

G|--------------------------|--------------------------|--------------------------|--------------------------|
D|--------------------------|--------------------------|--------------------------|--------------------------|
A|--------------------------|--------------------------|--5--5--5--5--5--5--5--5--|--5--5--5--5--5--5--5--5--|
E|--5--5--5--5--5--5--5--5--|--5--5--5--5--5--5--5--5--|--------------------------|--------------------------|

[Post-Chorus 2]
G|--------------------------|--------------------------|--------------------------|--------------------------|
D|--------------------------|--------------------------|--------------------------|--------------------------|
A|--------------------------|--------------------------|--------------------------|--------------------------|
E|--3--3--3--3--3--3--3--3--|--3--3--3--3--3--3--3--3--|--5--5--5--5--5--5--5--5--|--5--5--5--5--5--5--5--5--|

G|--------------------------|----------------------------|
D|--------------------------|----------------------------|
A|--5-----5-----3-----3-----|-----------5----------------|
E|--------------------------|--3-------------------------|

[Verse 3]
G|--------------------------|--------------------------|--------------------------|--------------------------|
D|--------------------------|--------------------------|--------------------------|--------------------------|
A|--5--------5--5--5--5--5--|--5--5--5--5--5--5--5--5--|--------------------------|--------------------------|
E|--------------------------|--------------------------|--5-----5--5--5--5--5--5--|--5--5--5--5--5--5--5--5--|

G|--------------------------|--------------------------|--------------------------|--------------------------|
D|--------------------------|--------------------------|--------------------------|--------------------------|
A|--5-----5--5--5--5--5--5--|--5--5--5--5--5--5--5--5--|--------------------------|--------------------------|
E|--------------------------|--------------------------|--5-----5--5--5--5--5--5--|--5--5--5--5--5--5--5--5--|

G|--------------------------|--------------------------|--------------------------|--------------------------|
D|--------------------------|--------------------------|--------------------------|--------------------------|
A|--3--3--3--3--3--3--3--3--|--3--3--3--3--3--3--3--3--|--------------------------|--------------------------|
E|--------------------------|--------------------------|--3--3--3--3--3--3--3--3--|--3--3--3--3--3--3--3--3--|

[Intro bis]
G|--------------------------|--------------------------|--------------------------|--------------------------|
D|--------------------------|--------------------------|--------------------------|--------------------------|
A|--------------------------|--------------------------|--5--5--5--5--5--5--5--5--|--5--5--5--5--5--5--5--5--|
E|--5--5--5--5--5--5--5--5--|--5--5--5--5--5--5--5--5--|--------------------------|--------------------------|

G|--------------------------|--------------------------|--------------------------|--------------------------|
D|--------------------------|--------------------------|--------------------------|--------------------------|
A|--------------------------|--------------------------|--5--5--5--5--5--5--5--5--|--5--5--5--5--5--5--5--5--|
E|--5--5--5--5--5--5--5--5--|--5--5--5--5--5--5--5--5--|--------------------------|--------------------------|

[Post-Chorus 3]
G|--------------------------|--------------------------|--------------------------|--------------------------|
D|--------------------------|--------------------------|--------------------------|--------------------------|
A|--------------------------|--------------------------|--------------------------|--------------------------|
E|--3--3--3--3--3--3--3--3--|--3--3--3--3--3--3--3--3--|--5--5--5--5--5--5--5--5--|--5--5--5--5--5--5--5--5--|

G|--------------------------|----------------------------|--------------------------|----------------------------|
D|--------------------------|----------------------------|--------------------------|----------------------------|
A|--5-----5-----3-----3-----|-----------5----------------|--5-----5-----3-----3-----|-----------5----------------|
E|--------------------------|--3-------------------------|--------------------------|--3-------------------------|
            
Submit corrections


        Grace lessons Hard to play? Try these video lessons and learn fast Grace lessons
        
↑ Back to top | Tablatures and chords for acoustic guitar and electric guitar, ukulele, drums are parodies/interpretations of the original songs. You may use it for private study, scholarship, research or language learning purposes only