Home » S » Supergrass »

Supergrass - St Petersburg Tabs

Artists:  A B C D E F G H I J K L M N O P Q R S T U V W X Y Z # 

St Petersburg Tabs

(ver. 1) Click to play this song!
Supergrass
 Rating:
4/5 (4 votes)
                

Capo. 2nd fret (All chords relative to capo)
Intro
e|------0-0-----0-0-----0-0-----0-0------------|
B|------0-0-----0-0-----0-0-----0-0------------|
G|------0-0-----0-0-----0-0-----0-0------------|
D|------2-2-----2-2-----2-2-----2-2------------|
A|--2-2-----2-2-----2-2-----2-2----------------|
E|--0-0-----0-0-----0-0-----0-0----------------|

                                                 PM throughout

e|------0-0-----0-0-----0-0-----0-0------------|
B|------0-0-----0-0-----0-0-----0-0------------|
G|------0-0-----0-0-----0-0-----0-0------------|
D|--2-2-2-2-2-2-2-2-2-2-2-2-2-2-2-2------------|
A|--3-3-----3-3-----3-3-----3-3----------------|
E|---------------------------------------------|


Verse 1
F#m
Before the time of the morning sandman
Cmaj7
I can find my way around
F#m
Soon be time here at the borderline i guess
Cmaj7
Armageddon coming down
G
And here lies a pretty state again
Cmaj7                 A7
It's time to make a move on
       F#m                D
'Cos in - three days I'll be out of there
                       Cmaj7
And it's - not a day too soon

Verse 2
F#m
Firelight the light of love burns
Cmaj7
And turns to ashes in your hand
F#m
So to bed by the morning light i guess
G
Set sail fot St. Petersburg
Cmaj7           A7
Making use of my time
       F#m                D
'Cos in - three days I'll be out of there
                       Cmaj7
And it's - not a day too soon


(Keyboard solo)


Verse 3
Head out to a better life i can
Cmaj7
Get a job, settle down
F#m
I'm full of love of a full-on healing
Cmaj7
I cant stand the here and now
G
Leave town for pity's sake i know
Cmaj7             A7
It's time to make a move on
       F#m                D
'Cos in - three days I'll be out of there
                       Cmaj7
And it's - not a day too soon
                       D
Yeah - three days I'll be out there
                       Cmaj7    (end: F#m)
And it's - not a day too soon
            
Submit corrections

↑ Back to top | Tablatures and chords for acoustic guitar and electric guitar, ukulele, drums are parodies/interpretations of the original songs. You may use it for private study, scholarship, research or language learning purposes only