» » »

Superchunk - The First Part Tabs

Artists:  A B C D E F G H I J K L M N O P Q R S T U V W X Y Z # 

The First Part Tabs

(ver. 1) Click to play this song!
Superchunk
 Rating:
4.3/5 (6 votes)

 The First Part lessons Tabs too difficult? Try these video lessons and learn fast
 
                [Intro/Verse]

rhythm
       E                     D          Cmaj7 (no 5th)
e|-----0-0-0-0--------------------------0------------------------------------|
B|-----0-0-0-0--------------------------0------------------------------------|
G|-----1-1-1-1--------------------------9------------------------------------|
D|-----2-2-2-2-------6-6-6-6-7-7-7-7----9------------------------------------|
A|-----2-2-2-2-------5-5-5-5-5-5-5-5----7------------------------------------|
E|-----0-0-0-0--------------------------8------------------------------------|(x6)

lead
e|---------------------------------------------------------------------|
B|--8------------------------------------------------------------------|
G|-----9/11--9-9--9\---------------------------------------------------|
D|-------------------7-7-7-7--9-9-9-9/12-12-12-12--9-9-9-9-------------|
A|---------------------------------------------------------------------|
E|---------------------------------------------------------------------|(x6)


So this is the first part
We're drunk and the selfless relentless caresses
How long must the first part last
Before we make our respective messes?

[Verse cont.]
rhythm
e|-----0-0-0-0--------------------------0------------------------------------|
B|-----0-0-0-0--------------------------0------------------------------------|
G|-----1-1-1-1--------------------------9------------------------------------|
D|-----2-2-2-2-------6-6-6-6-7-7-7-7----9------------------------------------|
A|-----2-2-2-2-------5-5-5-5-5-5-5-5----7------------------------------------|
E|-----0-0-0-0--------------------------8------------------------------------|(x2)

lead natural harmonics
e|---------------------------------------------------------------------------|
B|----(7)-(7)-(7)----(7)-(7)-(7)---(7)-(7)-(7)-------------------------------|
G|---------------------------------------------------------------------------|
D|---------------------------------------------------------------------------|
A|---------------------------------------------------------------------------|
E|---------------------------------------------------------------------------|(x2)

[Pre-Chorus]
rhythm
       E                     D          Cmaj7 (no 5th)
e|-----0-0-0-0--------------------------0------------------------------------|
B|-----0-0-0-0--------------------------0------------------------------------|
G|-----1-1-1-1--------------------------9------------------------------------|
D|-----2-2-2-2-------6-6-6-6-7-7-7-7----9------------------------------------|
A|-----2-2-2-2-------5-5-5-5-5-5-5-5----7------------------------------------|
E|-----0-0-0-0--------------------------8------------------------------------|(x2)

lead
(improvise ocassionally around these notes)
e|-------------------------------------------------------------------------|
B|--8----------------------------------------------------------------------|
G|-----9/11--9-11--12--11--12--11------------------------------------------|
D|-----------------------------------7-7-7-7--9-9-9-9/12-12-12-12--9-9-9-9-|
A|-------------------------------------------------------------------------|
E|-------------------------------------------------------------------------|(x2)



[Chorus]

Well it's a delicate line...

rhythm
   Dsus2 Csus2 E  Dsus2 Csus2 E     Dsus2
e|-------------0--------------0----------------------------------------------|
B|---5----3----0----5----3----0-----5----5----5------------------------------|
G|---7----5----1----7----5----1-----7----7----7------------------------------|
D|---7----5----2----7----5----2-----7----7----7------------------------------|
A|---5----3----2----5----3----2-----5----5----5------------------------------|
E|---5----3----0----5----3----0-----5----5----5------------------------------|

lead
   Dsus2 Csus2       E  Dsus2 Csus2       E   Dsus2
e|---------------------------------------------------------------------------|
B|---5----3---------------5---3----------------5----5----5-------------------|
G|---7----5----/9---/16---7---5-----/9---/16---7----7----7-------------------|
D|---7----5---------------7---5----------------7----7----7-------------------|
A|---5----3----/7---/14---5---3-----/7---/14---5----5----5-------------------|
E|---5----3---------------5---3----------------5----5----5-------------------|

[Verse]
rhythm
       E                     D          Cmaj7 (no 5th)
e|-----0-0-0-0--------------------------0------------------------------------|
B|-----0-0-0-0--------------------------0------------------------------------|
G|-----1-1-1-1--------------------------9------------------------------------|
D|-----2-2-2-2-------6-6-6-6-7-7-7-7----9------------------------------------|
A|-----2-2-2-2-------5-5-5-5-5-5-5-5----7------------------------------------|
E|-----0-0-0-0--------------------------8------------------------------------|(x4)

lead
e|---------------------------------------------------------------------|
B|--8------------------------------------------------------------------|
G|-----9/11--9-9--9\---------------------------------------------------|
D|-------------------7-7-7-7--9-9-9-9/12-12-12-12--9-9-9-9-------------|
A|---------------------------------------------------------------------|
E|---------------------------------------------------------------------|(x4)

[Verse cont.]
rhythm
e|-----0-0-0-0--------------------------0------------------------------------|
B|-----0-0-0-0--------------------------0------------------------------------|
G|-----1-1-1-1--------------------------9------------------------------------|
D|-----2-2-2-2-------6-6-6-6-7-7-7-7----9------------------------------------|
A|-----2-2-2-2-------5-5-5-5-5-5-5-5----7------------------------------------|
E|-----0-0-0-0--------------------------8------------------------------------|(x2)

lead natural harmonics
e|---------------------------------------------------------------------------|
B|----(7)-(7)-(7)----(7)-(7)-(7)---(7)-(7)-(7)-------------------------------|
G|---------------------------------------------------------------------------|
D|---------------------------------------------------------------------------|
A|---------------------------------------------------------------------------|
E|---------------------------------------------------------------------------|(x2)

[Pre-Chorus]
rhythm
       E                     D          Cmaj7 (no 5th)
e|-----0-0-0-0--------------------------0------------------------------------|
B|-----0-0-0-0--------------------------0------------------------------------|
G|-----1-1-1-1--------------------------9------------------------------------|
D|-----2-2-2-2-------6-6-6-6-7-7-7-7----9------------------------------------|
A|-----2-2-2-2-------5-5-5-5-5-5-5-5----7------------------------------------|
E|-----0-0-0-0--------------------------8------------------------------------|(x2)

lead
(improvise ocassionally around these notes)
e|-------------------------------------------------------------------------|
B|--8----------------------------------------------------------------------|
G|-----9/11--9-11--12--11--12--11------------------------------------------|
D|-----------------------------------7-7-7-7--9-9-9-9/12-12-12-12--9-9-9-9-|
A|-------------------------------------------------------------------------|
E|-------------------------------------------------------------------------|(x2)

[Chorus]

Well it's a delicate line...

rhythm
   Dsus2 Csus2 E  Dsus2 Csus2 E     Dsus2
e|-------------0--------------0----------------------------------------------|
B|---5----3----0----5----3----0-----5----5----5------------------------------|
G|---7----5----1----7----5----1-----7----7----7------------------------------|
D|---7----5----2----7----5----2-----7----7----7------------------------------|
A|---5----3----2----5----3----2-----5----5----5------------------------------|
E|---5----3----0----5----3----0-----5----5----5------------------------------|

lead
   Dsus2 Csus2       E  Dsus2 Csus2       E   Dsus2
e|---------------------------------------------------------------------------|
B|---5----3---------------5---3----------------5----5----5-------------------|
G|---7----5----/9---/16---7---5-----/9---/16---7----7----7-------------------|
D|---7----5---------------7---5----------------7----7----7-------------------|
A|---5----3----/7---/14---5---3-----/7---/14---5----5----5-------------------|
E|---5----3---------------5---3----------------5----5----5-------------------|


[Outro]
(Correct in the first tab, I find it easiest to play this way, you can just slide the figure up/down)
e|---------------------------------------------------------------------------|
B|---------------------------------------------------------------------------|
G|---13---13---9---9---9---11---11---11---14----14----14---14----------------|
D|---------------------------------------------------------------------------|
A|---11---11---7---7---7---9----9----9----12----12----12---12----------------|
E|---------------------------------------------------------------------------|(x12)

            
Submit corrections


        The First Part lessons Hard to play? Try these video lessons and learn fast The First Part lessons
        
↑ Back to top | Tablatures and chords for acoustic guitar and electric guitar, ukulele, drums are parodies/interpretations of the original songs. You may use it for private study, scholarship, research or language learning purposes only