» » »

Superchunk - Driveway To Driveway Tabs

Artists:  A B C D E F G H I J K L M N O P Q R S T U V W X Y Z # 

Driveway To Driveway Tabs

(ver. 1) Click to play this song!
Superchunk
 Rating:
4/5 (5 votes)
                


This was just an hour stuffing around. And there is lots wrong with it. 
Cant figure out the chorus. But it might save you some working out. 

I love this song. 

"We have received many requests for lyrics 
and tabs over the years. We are sorry to 
officially announce that none are available.  
As for tabs, we're not really even sure what 
they are." - Superchunk.


Lead Riff (Guitar One)

e----------4-5-7----------------0-  
B------4-5------------5-------7-0-  
G--2/4------------4/6---6-6/8-----
D---------------------------------
A---------------------------------
E---------------------------------

Guitar Two


e-|-----------------------
B-|-----------------------
G-|-----------------------
D-|--------1---2----------
A-|----------------4---2--
E-|-0---4-----------------


Pre-Verse (Guitar One) [1 beat for ever two dashes]

*palm mute E string*
          
e-|--------------------------------|--------------------------------|-
B-|--------------------------------|--------------------------------|- 
G-|------9-----9-9-----9-----9-8-9-|9-----9-----9-------9-----9-8-9-|-  
D-|------9-----9-9-----9-----9-9-9-|9-----9-----9-------9-----9-9-9-|-
A-|------7-----7-7-----7-----7-7-7-|7-----7-----7-------7-----7-7-7-|-
E-|0---------0-----0-0---0-0-------|----0---0-0---0-0-0---0-0-------|-PM

Verse (Guitar One)

e-|---------------------------------|-
B-|---------------------------------|-
G-|9-----------9-------9-----9-8-9--|- 
D-|9-----------9-------9-----9-9-9--|-
A-|7-----------7-------7-----7-7-7--|-
E-|----0-0-0-0---0-0-0---0-0--------|-PM  x1

e-|---------------------------------|-
B-|---------------------------------|-
G-|9-----9-----9-------9-----9-8-9--|- 
D-|9-----9-----9-------9-----9-9-9--|-
A-|7-----7-----7-------7-----7-7-7--|-
E-|----0---0-0---0-0-0---0-0--------|-PM  x1

e-|---------------------------------|-
B-|---------------------------------|-
G-|9-----9-------------9-----9-8-9--|- 
D-|9-----9-------------9-----9-9-9--|-
A-|7-----7-------------7-----7-7-7--|-
E-|----0----[0-0-0]0-0---0-0--------|-PM  x1
         *
      feedback - notes in brackets - no PM

e-|---------------------------------|-
B-|--------------------9-9-9-9-9-9--|-
G-|9-----9-----9-----9-9-9-9-9-9-9--|- 
D-|9-----9-----9-----9-9-9-9-9-9-9--|-
A-|7-----7-----7-----7-7-7-7-7-7-7--|-
E-|----0---0-0---0-0-0-0-0-0-0-0-0--|-PM  x1


Chorus (too hard basket)

e-|-------------------|-
B-|-2---2---2---2-----|-
G-|-2---1---1---1---1-|-
D-|-2---2---4---2---2-|-
A-|-0---0---0---0---2-|-
E-|-----------------0-|-


e-|----------------|
B-|----------------|
G-|----------1-----|
D-|-7--6--4--7--2--|
A-|-7--7--7--7--2--|
E-|-5--5--5--5--0--|


Chorus Outro

e-|---------|-
B-|---------|-
G-|---------|-
D-|---------|-
A-|-4-4-4-4-|-
E-|-2-2-2-2-|-


Lead                  Real messy Ad-lib around this.

e----------4-5-7--|-----------------------------
B------4-5--------|-10--10--10\9--9--9^--7--7--7
G--2/4------------|----------------------------9 bend full step
D-----------------|-----------------------------
A-----------------|-----------------------------
E-----------------|-----------------------------

Outro

e-|----------|-
B-|----------|-
G-|-2---1----|-
D-|-2---2----|-
A-|-2---2----|-
E-|-0---0----|-


Love someone to finish this.
            
Submit corrections

↑ Back to top | Tablatures and chords for acoustic guitar and electric guitar, ukulele, drums are parodies/interpretations of the original songs. You may use it for private study, scholarship, research or language learning purposes only