» » »

Superchick - We Live Tabs

Artists:  A B C D E F G H I J K L M N O P Q R S T U V W X Y Z # 

We Live Tabs

(ver. 1) Click to play this song!
Superchick
 Rating:
2.6/5 (25 votes)

 We Live  lessons Tabs too difficult? Try these video lessons and learn fast
 
                    Intro:
e|---------------------------------------------------------------------------|
B|-------------------------------------------------9-9--9-----4-4------------|
G|-----8-8--8----------------------------------6h8-8-8--8-3h4-3-3------------|
D|-----8-8--8--8h9-8h9b8-----8-8--8----------------6-6--6-----1-1--1---------|
A|-4\6-6-6--6----------------8-8--8--8h9-8h9b8-------------------------------|
E|-----------------------4\6-6-6--6------------------------------------------|

   Verse 1:
   There's a cross on the side of the road....
e|---------------------------------------------------------------------------|
B|-------------------------------------------------9-9--9-----4-4--4---------|
G|-----8-8--8----------------------------------6h8-8-8--8-3h4-3-3--3---------|
D|-----8-8--8--8h9-8h9b8-----8-8--8----------------6-6--6-----1-1--1---------|
A|-4\6-6-6--6----------------8-8--8--8h9-8h9b8-------------------------------|
E|-----------------------4\6-6-6--6------------------------------------------|

e|---------------------------------------------------------------------------|
B|-------------------------------------------------9-9--9-------4-4--4-------|
G|---------------------------------------------6h8-8-8--8--3h4--3-3--3-------|
D|-----8-8--8--8h9-8h9b8-----8-8--8----------------6-6--6-------1-1--1-------|
A|-4\6-6-6--6----------------8-8--8--8h9-8h9b8-------------------------------|
E|-----------------------4\6-6-6--6------------------------------------------|

e|------------------------|
B|-4--4-4--4--7--7-7--7---|
G|-3--3-3--3--6--6-6--6---|
D|-1--1-1--1--4--4-4--4---|
A|------------------------|
E|------------------------|


   Chorus:
F#      C#
We live we love
   B
We forgive and never give up
F#                         C#
Cuz the days we are given are gifts from above
B
Today we remember to live and to love
F#       C#
We live we love
    B
We forgive and never give up
F#                         C#
Cuz the days we are given are gifts from above
B                                     F#  C#  A#
Today we remember to live and to love

 
   Verse 2:

e|---------------------------------------------------------------------------|
B|-------------------------------------------------9-9--9-----4-4--4---------|
G|-----8-8--8----------------------------------6h8-8-8--8-3h4-3-3--3---------|
D|-----8-8--8--8h9-8h9b8-----8-8--8----------------6-6--6-----1-1--1---------|
A|-4\6-6-6--6----------------8-8--8--8h9-8h9b8-------------------------------|
E|-----------------------4\6-6-6--6------------------------------------------|

e|-----------------------------------------------------------------------------|
B|-------------------------------------------------9-9--9-------4-4--4--7-7--7-|
G|---------------------------------------------6h8-8-8--8--3h4--3-3--3--6-6--6-|
D|-----8-8--8--8h9-8h9b8-----8-8--8----------------6-6--6-------1-1--1--4-4--4-|
A|-4\6-6-6--6----------------8-8--8--8h9-8h9b8---------------------------------|
E|-----------------------4\6-6-6--6--------------------------------------------|
  

Chorus:
F#      C#
We live we love
   B
We forgive and never give up
F#                         C#
Cuz the days we are given are gifts from above
B
Today we remember to live and to love
F#       C#
We live we love
    B
We forgive and never give up
F#                         C#
Cuz the days we are given are gifts from above
B                                     F#  C#  A#
Today we remember to live and to love


Bridge:
D#m
Waking up to another dark morning
A#m
People are mourning
G#m
The weather in life outside is storming
D#m
But what would it take for the clouds to break
A#m
For us to realize each day is a gift somehow, someway
G#m
So get our heads up out of the darkness
D#m
And spark this new mindset and start to live life cuz it ain't gone yet
A#m
And tragedy is a reminder to take off the blinders
G#m
And wake up and live the life we're supposed to take up
D#m
Moving forward with all our heads up cuz life is worth living


Chorus:
F#      C#
We live we love
   B
We forgive and never give up
F#                         C#
Cuz the days we are given are gifts from above
B
Today we remember to live and to love
F#       C#
We live we love
    B
We forgive and never give up
F#                         C#
Cuz the days we are given are gifts from above
B                                     
Today we remember to live and to love

F#      C#
We live we love
   B
We forgive and never give up
F#                         C#
Cuz the days we are given are gifts from above
B
Today we remember to live and to love
F#       C#
We live we love
    B
We forgive and never give up
F#                         C#
Cuz the days we are given are gifts from above
B                                     
Today we remember to live and to love            
Submit corrections


        We Live  lessons Hard to play? Try these video lessons and learn fast We Live  lessons
        
↑ Back to top | Tablatures and chords for acoustic guitar and electric guitar, ukulele, drums are parodies/interpretations of the original songs. You may use it for private study, scholarship, research or language learning purposes only