» » »

Superchick - Stand In The Rain Tabs

Artists:  A B C D E F G H I J K L M N O P Q R S T U V W X Y Z # 

Stand In The Rain Tabs

(ver. 1) Click to play this song!
Superchick
 Rating:
4.7/5 (15 votes)

 Stand In The Rain lessons Tabs too difficult? Try these video lessons and learn fast
 
                Intro
e|--------4------|--------4------|
B|------5---5----|------5---5----|
G|----6-------6--|----6-------6--|  x2
D|--6------------|--7------------|
A|---------------|---------------|
E|---------------|---------------|

First Verse
e|--------4------|--------4------|--------4------|--------4------|
B|------5---5----|------5---5----|------5---5----|------5---5----|
G|----6-------6--|----6-------6--|----6-------6--|----6-------6--|
D|--6------------|--7------------|--6------------|--7------------|
A|---------------|---------------|---------------|---------------|
E|---------------|---------------|---------------|---------------|

e|--------4------|---------------|--------4------|--------4------|
B|------5---5----|--------4------|----------5----|------5--------|
G|------------4--|------4---4----|------6-----6--|----6----------|
D|----6----------|------------4--|----6----------|--7------------|
A|--7------------|----6----------|--4------------|---------------|
E|---------------|--7------------|---------------|---------------|
                                         
Verse 2
(Bass and Drums begin)
e|---------------|---------------|---------------|---------------|
B|--------5------|--------5------|--------5------|--------5------|
G|------6---6----|------6---6----|------6---6----|------6---6----|
D|----6-------6--|----7-------7--|----6-------6--|----7-------7--|
A|--4------------|--0------------|--4------------|--0------------|
E|---------------|---------------|---------------|---------------|

e|---------------|---------------|---------------|---------------|
B|--------5------|---------------|--------5------|---------------|
G|------4---4----|--------4------|------6---6----|---------------|
D|----6-------6--|------4---4----|----6-------6--|---------------|
A|--7------------|----6----------|--4------------|--0------------|
E|---------------|--7------------|---------------|---------------|

Chorus
e|---------------|---------------|---------------|---------------|
B|---------------|---------------|---------------|---------------|
G|--6-----6------|--2-----2------|---------------|--4-----4------|  x2
D|--6-----6------|--2-----2------|--2-----2------|--4-----4------|
A|--4-----4------|--0-----0------|--2-----2------|--2-----2------|
E|---------------|---------------|--0-----0------|---------------|

Chords during strings part:

C#m  A  C#m  A

Verse 3
Bass only for first two measures.
Then, come in this with this lead part.
e|------------------|------------------|------------------|
B|------------------|------------------|------------------|
G|------------------|------------------|------------------|
D|------------------|------------------|------------------|
A|--4---7-7-7-6--6--|--0---7-7-7-6--7--|------7---7----7--|
E|------------------|------------------|--0---------7-----|

e|------------------|------------------|------------------|
B|------------------|------------------|------------------|
G|------------------|------------------|------------------|
D|------------------|------------------|------------------|
A|------7---7-6-----|--4---7---7-6--6--|------------------|
E|--7------------7--|------------------|--0---------------|

(Continue above lead part during Verse 4.)

Verse 4
e|---------------------|--------------------|
B|---------------------|--------------------|
G|--6---6--6-6---6--6--|--2---2--2-2--2--2--|
D|--6---6--6-6---6--6--|--2---2--2-2--2--2--|
A|--4---4--4-4---4--4--|--0---0--0-0--0--0--|
E|---------------------|--------------------|
PM  .   .  . .   .  .     .   .  . .  .  .   

e|---------------------|--------------------|
B|---------------------|--------------------|
G|--6---6--6-6---6--6--|--2---2--2-2--2--2--|
D|--6---6--6-6---6--6--|--2---2--2-2--2--2--|
A|--4---4--4-4---4--4--|--0---0--0-0--0--0--|
E|---------------------|--------------------|
PM  .   .  . .   .  .     .   .  . .  .  .   

e|---------------------|--------------------|
B|---------------------|--------------------|
G|---------------------|--4---4--4-4--4--4--|
D|--2---2--2-2---2--2--|--4---4--4-4--4--4--|
A|--2---2--2-2---2--2--|--2---2--2-2--2--2--|
E|--0---0--0-0---0--0--|--------------------|
PM  .   .  . .   .  .     .   .  . .  .  .   

e|---------------------|--------------------|
B|---------------------|--------------------|
G|--6---6--6-6---6--6--|--2--2--2--2--------|
D|--6---6--6-6---6--6--|--2--2--2--2--------|
A|--4---4--4-4---4--4--|--0--0--0--0--------|
E|---------------------|--------------------|
PM  .   .  . .   .  .     .  .  .   

Chorus
e|---------------|---------------|---------------|---------------|
B|---------------|---------------|---------------|---------------|
G|--6-----6------|--2-----2------|---------------|--4-----4------|
D|--6-----6------|--2-----2------|--2-----2------|--4-----4------|
A|--4-----4------|--0-----0------|--2-----2------|--2-----2------|
E|---------------|---------------|--0-----0------|---------------|

e|-----------------|-----------------|---------------|---------------|
B|-----------------|-----------------|---------------|---------------|
G|--6-6---6---6-6--|--2-2---2---2-2--|---------------|---------------|
D|--6-6---6---6-6--|--2-2---2---2-2--|--2-----2------|--6-----6------|
A|--4-4---4---4-4--|--0-0---0---0-0--|--2-----2------|--6-----6------|
E|-----------------|-----------------|--0-----0------|--4-----4------|
PM  . .   .   .       . .   .   .  

Instrumental Break
e|-----------------|-----------------|
B|-----------------|-----------------|
G|--6-6---6---6-6--|--6-6---6---6-6--|
D|--6-6---6---6-6--|--6-6---6---6-6--|
A|--4-4---4---4-4--|--4-4---4---4-4--|
E|-----------------|-----------------|
PM  . .   .   . .     . .   .   . .

e|-----------------|--------------------|
B|-----------------|--------------------|
G|--2-2---2---2-2--|--------------------|
D|--2-2---2---2-2--|--2--2--2--4--4--4--|
A|--0-0---0---0-0--|--2--2--2--4--4--4--|
E|-----------------|--0--0--0--2--2--2--|
PM  . .   .   . .

   Guitar 1
e|-------------------|------------------|
B|-------------------|------------------|
G|--6-------6--------|--6-------6-------|
D|--6-------6--------|--6-------6-------|
A|--4-------4--------|--4-------4-------|
E|-------------------|------------------|
 |                   |                  |
 | Guitar 2          |                  |
e|-------------------|------------------|
B|-------------------|------------------|
G|----6\4/6---8\6/8--|----9\8/9---13\9--|
D|-------------------|------------------|
A|----4\2/4---6\4/6--|----7\6/7---11\7--|
E|-------------------|------------------|

e|--------------------|--------------------|
B|--------------------|--------------------|
G|--------------------|--------------------|
D|--2--2--2--2--2--2--|--4--4--4--4--4--4--|
A|--2--2--2--2--2--2--|--4--4--4--4--4--4--|
E|--0--0--0--0--0--0--|--2--2--2--2--2--2--|

Chords during piano part

C#m  A2  E  B  x2

(Second time play this lead part)

e|---------------|--------------|---------------|---------------|
B|--------4--4---|--5-----5-----|--------5------|----4---4------|
G|-----6------6--|------6-------|----4----------|---------------|
D|--6-6--6-------|--------------|------6--------|--4---4--------|
A|---------------|--------------|--7------------|---------------|
E|---------------|--------------|---------------|---------------|

Chorus
e|---------------|---------------|---------------|---------------|
B|---------------|---------------|---------------|---------------|
G|--6-6-6-6-6-6--|--2-2-2-2-2-2--|---------------|--4-4-4-4-4-4--|
D|--6-6-6-6-6-6--|--2-2-2-2-2-2--|--2-2-2-2-2-2--|--4-4-4-4-4-4--|
A|--4-4-4-4-4-4--|--0-0-0-0-0-0--|--2-2-2-2-2-2--|--2-2-2-2-2-2--|
E|---------------|---------------|--0-0-0-0-0-0--|---------------|

e|-----------------|-----------------|---------------|---------------|
B|-----------------|-----------------|---------------|---------------|
G|--6-6---6---6-6--|--2-2---2---2-2--|---------------|---------------|
D|--6-6---6---6-6--|--2-2---2---2-2--|--2-2-2-2-2-2--|--6-6-6-6-6-6--|
A|--4-4---4---4-4--|--0-0---0---0-0--|--2-2-2-2-2-2--|--6-6-6-6-6-6--|
E|-----------------|-----------------|--0-0-0-0-0-0--|--4-4-4-4-4-4--|
PM  . .   .   .       . .   .   .  

Instrumental Break
e|-----------------|-----------------|
B|-----------------|-----------------|
G|--6-6---6---6-6--|--6-6---6---6-6--|
D|--6-6---6---6-6--|--6-6---6---6-6--|
A|--4-4---4---4-4--|--4-4---4---4-4--|
E|-----------------|-----------------|
PM  . .   .   . .     . .   .   . .

e|-----------------|--------------------|
B|-----------------|--------------------|
G|--2-2---2---2-2--|--------------------|
D|--2-2---2---2-2--|--2--2--2--4--4--4--|
A|--0-0---0---0-0--|--2--2--2--4--4--4--|
E|-----------------|--0--0--0--2--2--2--|
PM  . .   .   . .

   Guitar 1
e|-------------------|------------------|
B|-------------------|------------------|
G|--6-------6--------|--6-------6-------|
D|--6-------6--------|--6-------6-------|
A|--4-------4--------|--4-------4-------|
E|-------------------|------------------|
 |                   |                  |
 | Guitar 2          |                  |
e|-------------------|------------------|
B|-------------------|------------------|
G|----6\4/6---8\6/8--|----9\8/9---13\9--|
D|-------------------|------------------|
A|----4\2/4---6\4/6--|----7\6/7---11\7--|
E|-------------------|------------------|

e|--------------------|--------------------|
B|--------------------|--------------------|
G|--------------------|--------------------|
D|--2--2--2--2--2--2--|--4--4--4--4--4--4--|
A|--2--2--2--2--2--2--|--4--4--4--4--4--4--|
E|--0--0--0--0--0--0--|--2--2--2--2--2--2--|

Ending (piano)

C#m  A2  E  B  x2
            
Submit corrections


        Stand In The Rain lessons Hard to play? Try these video lessons and learn fast Stand In The Rain lessons
        
↑ Back to top | Tablatures and chords for acoustic guitar and electric guitar, ukulele, drums are parodies/interpretations of the original songs. You may use it for private study, scholarship, research or language learning purposes only