Home » S » Sunrise Avenue »

Sunrise Avenue - Choose To Be Me Tabs

Artists:  A B C D E F G H I J K L M N O P Q R S T U V W X Y Z # 

Choose To Be Me Tabs

(ver. 2) Click to play this song!
Sunrise Avenue
Intro:
e|-----------------|
B|-----------------|
G|-----------------|
D|-6-6-6-6-6-6-6-6-|
A|-6-6-6-6-7-7-4-4-| x2
E|-----------------|

Verse:
e|-----------------|-----------------|
B|-----------------|-----------------|
G|-----------------|-----------------|
D|-----------------|-----------------|
A|-6-6-----7-7-4-4-|-6-6-----7-7-9-9-| 
E|-----7-7---------|-----7-7---------|, INTRO, VERSE, INTRO(Guitar1)+VERSE.part1.x2(Guitar2)

Chorus
e|---| |-----------------|
B|---| |-----------------|
G|---| |------------(9-9)|
D|-4-| |-4-4--------(7-7)|
A|-4-| |-2-2-4-4-6-6-2-2-|
E|---| |-----2-2-4-4-0-0-|x2 

ALL AGAIN

Bridge:
e|------------------|----------------|
B|------------------|----------------|
G|------9-9-------8-|-----9-9-----8~-|
D|-6-6--9-9-9-9-4-8-|-6-6-9-9-9-9-8~-|
A|-6-6--7-7-9-9-4-6-|-6-6-7-7-9-9-6~-|
E|-4-4------7-7-2---|-4-4-----7-7----|

e|-----------------|-----------------|
B|-----------------|-----------------|
G|-----------------|-----------------|
D|-----------------|-----------------|
A|-6-6-----7-7-4-4-|-6-6-----7-7-9-9-|
E|-----7-7---------|-----7-7---------|

e|-----------|
B|-----------|
G|-----------|
D|-6-6-6-6-6-|
A|-6-6-6-6-6-|
E|-4-4-4-6-7-|x6 then Chorus x4

Ending:
e|-----------------|    |---|
B|-----------------|    |---|
G|-----------------|    |---|
D|-6-6-6-6-2-2-4-4-|    |-6-|
A|-6-6-6-6-2-2-4-4-|x2  |-6-|
E|-4-4-4-4-0-0-2-2-|    |-4-|


            
Submit corrections

↑ Back to top | Tablatures and chords for acoustic guitar and electric guitar, ukulele, drums are parodies/interpretations of the original songs. You may use it for private study, scholarship, research or language learning purposes only