» » »

Sunny Sweeney - From A Table Away Tabs

Artists:  A B C D E F G H I J K L M N O P Q R S T U V W X Y Z # 

From A Table Away Tabs

(ver. 1) Click to play this song!
Sunny Sweeney
 Rating:
4/5 (5 votes)

 From A Table Away lessons Tabs too difficult? Try these video lessons and learn fast
 
                (Intro)
This is the intro and its also played after the first chorus.
all tabs are relative to capo
Capo on 1 standard

-----------------------------------|
-----------------------------------|
-----------------------------------|
-5-4-0--------5-4-0-5/9-7-5-4-0h2~-|
-------2-3-0-----------------------|
-----------------------------------|

the outro is a little different

--------------------------------------------------------------------|
--------------------------------------------------------------------|
--------------------------------------------------------------------|
-5-4-0--------5-4-0-5/9-9-10-7--5-4-0--------5-4-0-5/9-7-5-4-0-0h2~-|
-------2-3-0--------------------------2-3-0-------------------------|
--------------------------------------------------------------------|
            
Submit corrections


        From A Table Away lessons Hard to play? Try these video lessons and learn fast From A Table Away lessons
        
↑ Back to top | Tablatures and chords for acoustic guitar and electric guitar, ukulele, drums are parodies/interpretations of the original songs. You may use it for private study, scholarship, research or language learning purposes only