Home » S » Sunny Day Real Estate »

Sunny Day Real Estate - Guitar And Video Games Tabs

Artists:  A B C D E F G H I J K L M N O P Q R S T U V W X Y Z # 

Guitar And Video Games Tabs

(ver. 1) Click to play this song!
Sunny Day Real Estate
 Rating:
4.4/5 (7 votes)
                [Intro]

e|----------------------------------------------------------------------------|
B|----------------------------------------------------------------------------|
G|-2----2------1----1-----2---2-----1---1--------------------------------------|
D|---0----0------0----0-----0---0-----0---0---------------------------------|
A|-------------2----2---------------2---2-------------------------------------|
E|-2----2-----------------2---2------------------------------------------------|


[Verse1]
guitar 1 (repeat 8x)
e|----------------------------------------------------------------------------|
B|----------------------------------------------------------------------------|
G|-2----2------1----1---------------------------------------------------------|
D|---0----0------0----0-------------------------------------------------------|
A|-------------2----2---------------------------------------------------------|
E|-2----2---------------------------------------------------------------------|

guitar 2 (repeat 4x)
e|---12---10------9----9-----10-----10-----7----7----------------------------|
B|-10---10------9----9-----10-----10-----9----9------------------------------|
G|---------------------------------------------------------------------------|
D|---------------------------------------------------------------------------|
A|---------------------------------------------------------------------------|
E|---------------------------------------------------------------------------|


[breakdown 1]

Guitar 1
e|-------------------------------0-----------4--------------------------------|
B|-10------10--10-------10--2------2---2--------2------2----------------------|
G|---11-----------11-----------3----------3------------0----------------------|
D|------11-----------11----------------2---------------0---strum--------------|
A|-----------------------------------------------------0----------------------|
E|-10----------10-----------2--------------------------2----------------------|

Guitar 2
e|----------------------------------------------------------------------------|
B|-------------------------------------------12--------13---------------------|
G|----h-7-9-7-6--6h7---7-6----------7\6--6-----------6------------------------|
D|-0-------------0--------7/9------------8----------7-------------------------|
A|----------------------------------------------------------------------------|
E|----------------------------------------------------------------------------|

[Verse2]

[Verse1]
guitar 1 (repeat 8x)
e|----------------------------------------------------------------------------|
B|----------------------------------------------------------------------------|
G|-2----2------1----1---------------------------------------------------------|
D|---0----0------0----0-------------------------------------------------------|
A|-------------2----2---------------------------------------------------------|
E|-2----2---------------------------------------------------------------------|

guitar 2 (repeat 4x)
e|---12---10------9----9-----10-----10-----7----7----------------------------|
B|-10---10------9----9-----10-----10-----9----9------------------------------|
G|---------------------------------------------------------------------------|
D|---------------------------------------------------------------------------|
A|---------------------------------------------------------------------------|
E|---------------------------------------------------------------------------|


[breakdown 2]
One story a tale....
Guitar 1 (repeat x2)
e|-------------------------------0-----------4--------------------------------|
B|-10------10--10-------10--2------2---2--------2-----------------------------|
G|---11-----------11-----------3----------3-----------------------------------|
D|------11-----------11----------------2--------------------------------------|
A|----------------------------------------------------------------------------|
E|-10----------10-----------2-------------------------------------------------|

Guitar 2 (repeat x2)
e|----------------------------------------------------------------------------|
B|-------------------------------------------12--------13---------------------|
G|----h-7-9-7-6--6h7---7-6----------7\6--6-----------6------------------------|
D|-0-------------0--------7/9------------8----------7-------------------------|
A|----------------------------------------------------------------------------|
E|----------------------------------------------------------------------------|

Guitars 1 and 2
e|----------------------------------------------------------------------------|
B|----------------------------------------------------------------------------|
G|-2-2--2-2--2----------------------------------------------------------------|
D|-0-0--0-0--0----------------------------------------------------------------|
A|-0-0--0-0--0----------------------------------------------------------------|
E|-2-2--2-2--2----------------------------------------------------------------|


[Pre-Chorus 1]
Guitar 1 (repeat 3x)
e|----------------------------------------------------------------------------|
B|----------------------0-----------------------------------------------------|
G|--2--------------4----1-----------------------------------------------------|
D|--0--------------0----0-----------------------------------------------------|
A|--0--------------0----2-----------------------------------------------------|
E|--2--------------4----------------------------------------------------------|

Guitar 2 (repeat 3x)
e|----------------------------------------------------------------------------|
B|----------------------------------------------------------------------------|
G|-11----14-----11-----9------------------------------------------------------|
D|----------------------------------------------------------------------------|
A|-9-----12-----9------7------------------------------------------------------|
E|----------------------------------------------------------------------------|


[Chorus 1]
Guitar 1 2 distortion (repeat 1x)

    F#m            E             What if we refuse to      F#m
e|----------------------------------------------------------------------------|
B|-----------------------------3---3---3----3---------------------------------|
G|----2----------1------2------4---4---4----4----1--------2-----1--2----------|
D|----4----------2------2------0---0---0----0----2--------4-----2--2----------|
A|----4----------2------2------2---0---0----0----2--------4-----2--2----------|
E|0-h-2----------0------0------0---0---4----2----0----0-h-2-----0--0----------|

[Bridge 1]
guitar 1 strum
e|-----------------------------------------------------------------------------|
B|-----------------------------------------------------------------------------|
G|--2-----1----------------------2---------------------------------------------|
D|--0-----0---repeat 3x----------4---------------------------------------------|
A|--0-----2----------------------4---------------------------------------------|
E|--2-----0------------------0-h-2---------------------------------------------|

e|-----------------------------------------------------------------------------|
B|-----------------------------------------------------------------------------|
G|--14----13---------------------2---------------------------------------------|
D|------------repeat 3x----------4---------------------------------------------|
A|--12----11---------------------4---------------------------------------------|
E|---------------------------0-h-2---------------------------------------------|


[Chorus 1]
Guitar 1 2 distortion (repeat 1x)

    F#m            E             What if we refuse to      F#m
e|----------------------------------------------------------------------------|
B|-----------------------------3---3---3----3---------------------------------|
G|----2----------1------2------4---4---4----4----1--------2-----1--2----------|
D|----4----------2------2------0---0---0----0----2--------4-----2--2----------|
A|----4----------2------2------2---0---0----0----2--------4-----2--2----------|
E|0-h-2----------0------0------0---0---4----2----0----0-h-2-----0--0----------|

[Bridge 2]
guitar 1 strum
e|-----------------------------------------------------------------------------|
B|-----------------------------------------------------------------------------|
G|--2-----1----------------------2---------------------------------------------|
D|--0-----0---repeat 3x----------4---------------------------------------------|
A|--0-----2----------------------4---------------------------------------------|
E|--2-----0------------------0-h-2---------------------------------------------|

e|-----------------------------------------------------------------------------|
B|-----------------------------------------------------------------------------|
G|--14----13---------------------2---------------------------------------------|
D|------------repeat 3x----------4---------------------------------------------|
A|--12----11---------------------4---------------------------------------------|
E|---------------------------0-h-2---------------------------------------------|

            
Submit corrections

↑ Back to top | Tablatures and chords for acoustic guitar and electric guitar, ukulele, drums are parodies/interpretations of the original songs. You may use it for private study, scholarship, research or language learning purposes only