» » »

Sun Kil Moon - Michelene Acoustic Tabs

Artists:  A B C D E F G H I J K L M N O P Q R S T U V W X Y Z # 

Michelene Acoustic Tabs

(ver. 1) Click to play this song!
Sun Kil Moon
 Rating:
4.4/5 (5 votes)

 Michelene Acoustic lessons Tabs too difficult? Try these video lessons and learn fast
 
                [Verse 1]
  1 + 2 + 3 + 4 + |1 + 2 + 3 + 4 + |1 + 2 + 3 + 4 + |1 + 2 + 3 + 4 + |
e|----------------|----------------|----------------|----------------|
B|----------------|----------------|----------------|----------------|
G|11----------11--|9-----------9---|7-----------7---|6-----------6---|
D|--------12------|--------11------|--------9-------|--------7-------|
A|----o-----------|----o-----------|----o-----------|----o-----------|      
E|o---------------|o---------------|o---------------|o---------------| 

                                                                        x6
  1 + 2 + 3 + 4 + |1 + 2 + 3 + 4 + |1 + 2 + 3 + 4 + |1 + 2 + 3 + 4 + |
e|----------------|------------o---|----------------|------------o---|
B|------------o---|----------------|------------o---|----------------|
G|--------o-------|--------o-------|--------o-------|--------o-------|
D|----o-----------|----o-----------|----o-----------|----o-----------|
A|----------------|----------------|----------------|----------------|
E|5---------------|4---------------|2---------------|2---------------|

[Mid-Verse 1]
  1 + 2 + 3 + 4 + |1 + 2 + 3 + 4 + |1 + 2 + 3 + 4 + |1 + 2 + 3 + 4 + |
e|----------------|------------o---|----------------|------------o---|
B|------------o---|----------------|------------o---|----------------|
G|--------o-------|--------o-------|--------o-------|--------o-------|  x4
D|----o-----------|----o-----------|----o-----------|----o-----------|
A|2---------------|o---------------|----------------|----------------|
E|----------------|----------------|5---------------|o---------------|

[Verse 2]
1 + 2 + 3 + 4 + |1 + 2 + 3 + 4 + |1 + 2 + 3 + 4 + |1 + 2 + 3 + 4 + |
e|----------------|----------------|----------------|----------------|
B|----------------|----------------|----------------|----------------|
G|11----------11--|9-----------9---|7-----------7---|6-----------6---|
D|--------12------|--------11------|--------9-------|--------7-------|
A|----o-----------|----o-----------|----o-----------|----o-----------|
E|o---------------|o---------------|o---------------|o---------------|
                                                                        x4
  1 + 2 + 3 + 4 + |1 + 2 + 3 + 4 + |1 + 2 + 3 + 4 + |1 + 2 + 3 + 4 + |
e|----------------|------------o---|----------------|------------o---|
B|------------o---|----------------|------------o---|----------------|
G|--------o-------|--------o-------|--------o-------|--------o-------|
D|----o-----------|----o-----------|----o-----------|----o-----------|
A|----------------|----------------|----------------|----------------|
E|5---------------|4---------------|2---------------|2---------------|

[Chorus 1]
  1 + 2 + 3 + 4 + |1 + 2 + 3 + 4 + |1 + 2 + 3 + 4 + |1 + 2 + 3 + 4 + |
e|----------------|----------------|----------------|----------------|
B|----------------|----------------|----------------|----------------|
G|------------11--|------------9---|------------7---|------------7---|  x2
D|----12----------|----11----------|----9-----------|----9-----------|
A|--------o-------|--------o-------|--------o-------|--------o-------|
E|o---------------|o---------------|o---------------|o---------------|

  1 + 2 + 3 + 4 + |1 + 2 + 3 + 4 + |1 + 2 + 3 + 4 + |1 + 2 + 3 + 4 + |
e|----------------|----------------|----------------|----------------|
B|------------9---|------------7---|------------5---|------------o---|
G|----7-----------|----6-----------|----4-----------|----4-----------|  x4
D|--------0-------|--------0-------|--------0-------|--------o-------|
A|----------------|----------------|----------------|----------------|
E|9---------------|7---------------|5---------------|o---------------|

[Verse 3]
1 + 2 + 3 + 4 + |1 + 2 + 3 + 4 + |1 + 2 + 3 + 4 + |1 + 2 + 3 + 4 + |
e|----------------|----------------|----------------|----------------|
B|----------------|----------------|----------------|----------------|
G|11----------11--|9-----------9---|7-----------7---|6-----------6---|
D|--------12------|--------11------|--------9-------|--------7-------|
A|----o-----------|----o-----------|----o-----------|----o-----------|
E|o---------------|o---------------|o---------------|o---------------|
                                                                        x4
  1 + 2 + 3 + 4 + |1 + 2 + 3 + 4 + |1 + 2 + 3 + 4 + |1 + 2 + 3 + 4 + |
e|----------------|------------o---|----------------|------------o---|
B|------------o---|----------------|------------o---|----------------|
G|--------o-------|--------o-------|--------o-------|--------o-------|
D|----o-----------|----o-----------|----o-----------|----o-----------|
A|----------------|----------------|----------------|----------------|
E|5---------------|4---------------|2---------------|2---------------|

[Mid-Verse 2]
  1 + 2 + 3 + 4 + |1 + 2 + 3 + 4 + |1 + 2 + 3 + 4 + |1 + 2 + 3 + 4 + |
e|----------------|------------o---|----------------|------------o---|
B|------------o---|----------------|------------o---|----------------|
G|--------o-------|--------o-------|--------o-------|--------o-------|  x4
D|----o-----------|----o-----------|----o-----------|----o-----------|
A|2---------------|o---------------|----------------|----------------|
E|----------------|----------------|5---------------|o---------------|

[Verse 4]
1 + 2 + 3 + 4 + |1 + 2 + 3 + 4 + |1 + 2 + 3 + 4 + |1 + 2 + 3 + 4 + |
e|----------------|----------------|----------------|----------------|
B|----------------|----------------|----------------|----------------|
G|11----------11--|9-----------9---|7-----------7---|6-----------6---|
D|--------12------|--------11------|--------9-------|--------7-------|
A|----o-----------|----o-----------|----o-----------|----o-----------|
E|o---------------|o---------------|o---------------|o---------------|
                                                                        x4
  1 + 2 + 3 + 4 + |1 + 2 + 3 + 4 + |1 + 2 + 3 + 4 + |1 + 2 + 3 + 4 + |
e|----------------|------------o---|----------------|------------o---|
B|------------o---|----------------|------------o---|----------------|
G|--------o-------|--------o-------|--------o-------|--------o-------|
D|----o-----------|----o-----------|----o-----------|----o-----------|
A|----------------|----------------|----------------|----------------|
E|5---------------|4---------------|2---------------|2---------------|

[Chorus 2]
  1 + 2 + 3 + 4 + |1 + 2 + 3 + 4 + |1 + 2 + 3 + 4 + |1 + 2 + 3 + 4 + |
e|----------------|----------------|----------------|----------------|
B|----------------|----------------|----------------|----------------|
G|------------11--|------------9---|------------7---|------------7---|  x2
D|----12----------|----11----------|----9-----------|----9-----------|
A|--------o-------|--------o-------|--------o-------|--------o-------|
E|o---------------|o---------------|o---------------|o---------------|

  1 + 2 + 3 + 4 + |1 + 2 + 3 + 4 + |1 + 2 + 3 + 4 + |1 + 2 + 3 + 4 + |
e|----------------|----------------|----------------|----------------|
B|------------9---|------------7---|------------5---|------------o---|
G|----7-----------|----6-----------|----4-----------|----4-----------|  x4
D|--------0-------|--------0-------|--------0-------|--------o-------|
A|----------------|----------------|----------------|----------------|
E|9---------------|7---------------|5---------------|o---------------|

[Verse 5]
1 + 2 + 3 + 4 + |1 + 2 + 3 + 4 + |1 + 2 + 3 + 4 + |1 + 2 + 3 + 4 + |
e|----------------|----------------|----------------|----------------|
B|----------------|----------------|----------------|----------------|
G|11----------11--|9-----------9---|7-----------7---|6-----------6---|
D|--------12------|--------11------|--------9-------|--------7-------|
A|----o-----------|----o-----------|----o-----------|----o-----------|
E|o---------------|o---------------|o---------------|o---------------|
                                                                        x4
  1 + 2 + 3 + 4 + |1 + 2 + 3 + 4 + |1 + 2 + 3 + 4 + |1 + 2 + 3 + 4 + |
e|----------------|------------o---|----------------|------------o---|
B|------------o---|----------------|------------o---|----------------|
G|--------o-------|--------o-------|--------o-------|--------o-------|
D|----o-----------|----o-----------|----o-----------|----o-----------|
A|----------------|----------------|----------------|----------------|
E|5---------------|4---------------|2---------------|2---------------|

[Mid-Verse 3]
  1 + 2 + 3 + 4 + |1 + 2 + 3 + 4 + |1 + 2 + 3 + 4 + |1 + 2 + 3 + 4 + |
e|----------------|------------o---|----------------|------------o---|
B|------------o---|----------------|------------o---|----------------|
G|--------o-------|--------o-------|--------o-------|--------o-------|  x4
D|----o-----------|----o-----------|----o-----------|----o-----------|
A|2---------------|o---------------|----------------|----------------|
E|----------------|----------------|5---------------|o---------------|

[Verse 6]
1 + 2 + 3 + 4 + |1 + 2 + 3 + 4 + |1 + 2 + 3 + 4 + |1 + 2 + 3 + 4 + |
e|----------------|----------------|----------------|----------------|
B|----------------|----------------|----------------|----------------|
G|11----------11--|9-----------9---|7-----------7---|6-----------6---|
D|--------12------|--------11------|--------9-------|--------7-------|
A|----o-----------|----o-----------|----o-----------|----o-----------|
E|o---------------|o---------------|o---------------|o---------------|
                                                                        x4
  1 + 2 + 3 + 4 + |1 + 2 + 3 + 4 + |1 + 2 + 3 + 4 + |1 + 2 + 3 + 4 + |
e|----------------|------------o---|----------------|------------o---|
B|------------o---|----------------|------------o---|----------------|
G|--------o-------|--------o-------|--------o-------|--------o-------|
D|----o-----------|----o-----------|----o-----------|----o-----------|
A|----------------|----------------|----------------|----------------|
E|5---------------|4---------------|2---------------|2---------------|

[Chorus 3]
  1 + 2 + 3 + 4 + |1 + 2 + 3 + 4 + |1 + 2 + 3 + 4 + |1 + 2 + 3 + 4 + |
e|----------------|----------------|----------------|----------------|
B|----------------|----------------|----------------|----------------|
G|------------11--|------------9---|------------7---|------------7---|  x2
D|----12----------|----11----------|----9-----------|----9-----------|
A|--------o-------|--------o-------|--------o-------|--------o-------|
E|o---------------|o---------------|o---------------|o---------------|

  1 + 2 + 3 + 4 + |1 + 2 + 3 + 4 + |1 + 2 + 3 + 4 + |1 + 2 + 3 + 4 + |
e|----------------|----------------|----------------|----------------|
B|------------9---|------------7---|------------5---|------------o---|
G|----7-----------|----6-----------|----4-----------|----4-----------|  x4
D|--------0-------|--------0-------|--------0-------|--------o-------|
A|----------------|----------------|----------------|----------------|
E|9---------------|7---------------|5---------------|o---------------|

  1 + 2 + 3 + 4 + |1 + 2 + 3 + 4 + |1 + 2 + 3 + 4 + |1 + 2 + 3 + 4 + |
e|----------------|----------------|----------------|----------------|
B|----------------|----------------|----------------|----------------|
G|------------11--|------------9---|------------7---|------------7---|  x2
D|----12----------|----11----------|----9-----------|----9-----------|
A|--------o-------|--------o-------|--------o-------|--------o-------|
E|o---------------|o---------------|o---------------|o---------------|

  1 + 2 + 3 + 4 + |1 + 2 + 3 + 4 + |1 + 2 + 3 + 4 + |1 + 2 + 3 + 4 + |
e|----------------|----------------|----------------|----------------|
B|------------9---|------------7---|------------5---|------------o---|
G|----7-----------|----6-----------|----4-----------|----4-----------|  x4
D|--------0-------|--------0-------|--------0-------|--------o-------|
A|----------------|----------------|----------------|----------------|
E|9---------------|7---------------|5---------------|o---------------|

  1 + 2 + 3 + 4 + |1 + 2 + 3 + 4 + |
e|------------o---|----------------|
B|----------------|----------------|
G|----4-----------|----------------|
D|--------o-------|----------------|
A|----------------|----------------|
E|o---------------|----------------|
            
Submit corrections


        Michelene Acoustic lessons Hard to play? Try these video lessons and learn fast Michelene Acoustic lessons
        
↑ Back to top | Tablatures and chords for acoustic guitar and electric guitar, ukulele, drums are parodies/interpretations of the original songs. You may use it for private study, scholarship, research or language learning purposes only