» » »

Sun Kil Moon - Exit Does Not Exist Tabs

Artists:  A B C D E F G H I J K L M N O P Q R S T U V W X Y Z # 

Exit Does Not Exist Tabs

(ver. 1) Click to play this song!
Sun Kil Moon
 Rating:
2.6/5 (22 votes)

 Exit Does Not Exist  lessons Tabs too difficult? Try these video lessons and learn fast
 
                Tuning:  This is a strange one.  F G# C# D# A# C

Intro:
e|---------------------------------------------------------------------------|
B|---------------------------------------------------------------------------|
G|------12--------12---------------------------------------------------------|
D|--------12--------12-------------------------------------------------------|
A|----------12--------12-----------------------------------------------------|
E|---12---------12-----------------------------------------------------------|

Verse:
e|---12----12--12-----12--12-----12--12-----12--12---------------------------|
B|-------12--12-----12--12-----12--12-----12--12-----------------------------|
G|----------------12---------------------------------------------------------|
D|---------------------------12----------------------------------------------|
A|--------------------------------------12-----------------------------------|
E|-----12--------------------------------------------------------------------|            
Submit corrections


        Exit Does Not Exist  lessons Hard to play? Try these video lessons and learn fast Exit Does Not Exist  lessons
        
↑ Back to top | Tablatures and chords for acoustic guitar and electric guitar, ukulele, drums are parodies/interpretations of the original songs. You may use it for private study, scholarship, research or language learning purposes only