Home » S » Sungha Jung »

Sungha Jung - My Heart Will Go On Acoustic Tabs

Artists:  A B C D E F G H I J K L M N O P Q R S T U V W X Y Z # 

My Heart Will Go On Acoustic Tabs

(ver. 5) Click to play this song!
Sungha Jung
[Intro]
                             ^
D|------------|--5--------0-----7----|
A|--5/7--7/9--|-----9--------7-------|
G|------------|--------9-----6-------|
D|------------|--------------7-------|
A|------------|--------------0-------|
D|-------0----|----------------------|

              ^       ^
D|--5\4--0---------|-------|--------------|
A|-----------------|-------|--5/7--7/9----|
G|------------4----|--2----|--------------|
D|------------0----|-------|--------------|
A|-----------------|--0----|--------------|
D|-------5---------|-------|-------0------|

                ^
D|--5--------0-----7----|
A|-----9--------7-------|
G|--------9-----6-------|
D|--------------7-------|
A|--------------0-------|
D|----------------------|

[Verse]
                 ^       ^
D|--4--7/9--9----7----|-------|--0--------0--0-----0-----|
A|---------------0----|--7----|--------------------------|
G|--------------------|--6----|--------2--------2--------|
D|--------------------|--7----|-----4-----------------0--|
A|--------------------|--0----|--------------------------|
D|----------5---------|-------|--0-----------------------|

D|-------0-----------0-----|-------0-----------2-----|
A|--4----------------------|--4----------------------|
G|----------------2--------|----------------0-----0--|
D|-------------2--------0--|-------------0-----------|
A|--0-------0--------------|-------------------------|
D|-------------------------|--5-------5--------------|

    ^
D|--4-------5p4--2----0-----|
A|--5------------4----------|
G|--4----4------------------|
D|-----------------------0--|
A|--0------------0----------|
D|--------------------------|

D|--0--------0--0-----0-----|-------0-----------0-----|
A|--------------------------|--4----------------------|
G|--------2-----------------|----------------2--------|
D|-----4-----------4-----0--|-------------2--------0--|
A|--------------------------|--0-------0--------------|
D|--0-----------------------|-------------------------|

D|-----------------------0--|
A|--0-----------------0-----|
G|-----------0-----0--------|
D|--------0-----4-----------|
A|--------------------------|
D|--5-----------------------|

D|-----------0--2--0h2p0-----0--|
A|-----0------------------4-----|
G|--4-----4---------------------|
D|------------------------------|
A|--------------0---------------|
D|--5---------------------------|

D|-----------0--0-----0-----|-------0-----------0-----|
A|--------------------------|--4----------------------|
G|--------2-----------------|----------------2--------|
D|-----4-----------4-----0--|-------------2--------0--|
A|--------------------------|--0-------0--------------|
D|--0-----------------------|-------------------------|

D|-------0-----------2-----|
A|--4----------------------|
G|----------------0-----0--|
D|-------------0-----------|
A|-------------------------|
D|--5-------5--------------|

    ^
D|--4-------5p4--2----0-----|
A|--5------------4----------|
G|--4----4------------------|
D|-----------------------0--|
A|--0------------0----------|
D|--------------------------|

                               ^
D|--0--------0--0-----0-----|-------0-----------0-----|
A|--------------------------|--4----------------------|
G|--------4-----------------|--2-------------2--------|
D|-----4-----------4-----0--|--4----------4--------0--|
A|--2-----------------------|-------------------------|
D|--------------------------|--4-------4--------------|

D|-----------------------0----|-----0-----4----------0--|
A|--0-----------------0-------|--------7-------7--------|
G|-----------0-----0----------|--4----------------------|
D|--------0-----4-------------|-------------------------|
A|----------------------------|--0--------0-------0-----|
D|--5-------------------------|-------------------------|

[Chorus]
             ^
D|-----------0----------|--2-----------------------|
A|-----------0----------|--4--------4--------------|
G|--------4--4-------0--|--4-----4--2--------2-----|
D|-----4-----4----4-----|-----2-----------2-----0--|
A|--2--------2----------|--0--------0--------------|
D|----------------------|--------------------------|

                     ^
D|--7-------5----------------|--------4-----5----|
A|--5----5--------9--7-------|-------------------|
G|-------------------6-------|-------------------|
D|-------------5-----7-------|--7----------------|
A|----------------------0----|-----0-----0-------|
D|--5-------5----------------|-------------------|

                              ^
D|--4----------2-----------|-------0-----------0-----|
A|-------------------5-----|--4----------------------|
G|-------------------------|--2-------------2--------|
D|-------4-----------------|--4----------4--------0--|
A|--2-------2-----2-----0--|-------------------------|
D|-------------------------|--4-------4--------------|

D|----------------------0---------|
A|--0----------------0------------|
G|----------0-----0---------------|
D|-------0-----4------------------|
A|--------------------------------|
D|--5-----------------------------|

D|-----------0--2--0h2p0-----0--|
A|-----0------------------4-----|
G|--4-----4---------------------|
D|------------------------------|
A|--------------0---------------|
D|--5---------------------------|

             ^
D|-----------0----------|--2-----------------------|
A|-----------0----------|--4--------4--------------|
G|--------4--4-------0--|--4-----4--2--------2-----|
D|-----4-----4----4-----|-----2-----------2-----0--|
A|--2--------2----------|--0--------0--------------|
D|----------------------|--------------------------|

                     ^
D|--7-------5----------------|--------4-----5----|
A|--5----5--------9--7-------|-------------------|
G|-------------------6-------|-------------------|
D|-------------5-----7-------|--7----------------|
A|----------------------0----|-----0-----0-------|
D|--5-------5----------------|-------------------|

                              ^
D|--4----------2-----------|-------0-----------0-----|
A|-------------------5-----|--4----------------------|
G|-------------------------|--2-------------2--------|
D|-------4-----------------|--4----------4--------0--|
A|--2-------2-----2-----0--|-------------------------|
D|-------------------------|--4-------4--------------|

D|-------0-----------2-----|
A|--4----------------------|
G|----------------0-----0--|
D|-------------0-----------|
A|-------------------------|
D|--5-------5--------------|

    ^
D|--4-------5p4--2----0-----|
A|--5------------4----------|
G|--4----4---------------0--|
D|--------------------------|
A|--0------------0----------|
D|--------------------------|

[Interlude]
    ^                   ^
D|--0----|--5--------0-----7----|
A|-------|-----9--------7-------|
G|-------|--------9-----6-------|
D|-------|--------------7-------|
A|-------|--------------0-------|
D|--9----|----------------------|

              ^       ^
D|--5\4--0---------|-------|--------------|
A|-----------------|-------|--5/7--7/9----|
G|------------4----|--2----|--------------|
D|------------0----|-------|--------------|
A|-----------------|--0----|--------------|
D|-------5---------|-------|-------0------|

                ^
D|--5--------0-----7----|
A|-----9--------7-------|
G|--------9-----6-------|
D|--------------7-------|
A|--------------0-------|
D|----------------------|

                 ^                       Move capo one fret higher and then repeat...
D|--4--7/9--9----7----|--2-----------||--2-----------|
A|---------------5----|--------------||--------------|
G|--------------------|--------0-----||--------0-----|
D|--------------------|-----2-----2—-||-----2-----2--|
A|--------------------|--0-----------||--0-----------|
D|----------5---------|--------------||--------------|
            
Submit corrections

↑ Back to top | Tablatures and chords for acoustic guitar and electric guitar, ukulele, drums are parodies/interpretations of the original songs. You may use it for private study, scholarship, research or language learning purposes only