Home » S » Sullivan »

Sullivan - Simpan Meh Tabs

Artists:  A B C D E F G H I J K L M N O P Q R S T U V W X Y Z # 

Simpan Meh Tabs

(ver. 1) Click to play this song!
Sullivan
e|--------------------------|----------------------|-12-----------------|
B|-------------12---13------|-------------12---13--|------13---15---12--|
G|---14---------------------|---14-----------------|--------------------|
D|--------14----------------|--------15------------|--------------------|
A|--------------------------|----------------------|--------------------|
E|--------------------------|----------------------|--------------------|
                           
e|---------------------------------------------------------------------|
B|--------------12--13--12--------------------------12--13-------------|
G|------12--14--------------14--12------12--14-------------------------|
D|--14------------------------------14---------------------------------|
A|---------------------------------------------------------------------|
E|---------------------------------------------------------------------|

e|---------------------------------------------------------------------------|
B|--12----------------------12--13--12----------------------13--12-----------|
G|------14--12------12--14--------------14--12------12--14-------------------|
D|--------------15------------------------------15---------------------------|
A|---------------------------------------------------------------------------|
E|---------------------------------------------------------------------------|

e|--12--15--20--19-----------------------------------------------------------|
B|---------------------------------------------------------------------------|
G|---------------------------------------------------------------------------|
D|---------------------------------------------------------------------------|
A|---------------------------------------------------------------------------|
E|---------------------------------------------------------------------------|
            
Submit corrections

↑ Back to top | Tablatures and chords for acoustic guitar and electric guitar, ukulele, drums are parodies/interpretations of the original songs. You may use it for private study, scholarship, research or language learning purposes only