» » »

Sugarfree - Dear Kuya Tabs

Artists:  A B C D E F G H I J K L M N O P Q R S T U V W X Y Z # 

Dear Kuya Tabs

(ver. 1) Click to play this song!
Sugarfree
 Rating:
4/5 (4 votes)

 Dear Kuya lessons Tabs too difficult? Try these video lessons and learn fast
 
                
Elow po sa mga friends ko sila Calvin,Jon,Otep,Emak,Aerol,Tuts.. at iba
pa.. sa mga clasm8s ko sa MNHS(annex) IV-A.. mabuhay kayong lahat.. hehe
Binabati ko rin si Maria Lourdes Vejar, HEHE.. wala lang.. HEHEHE!!

   Para to sa mga mahal natin sa buhay na nasa ibang bansa na nagtatrabaho
para may maipadala sa atin, sa ating pangangailangan,,Sila kuya JesseL at
Kuya Boy,,sila ang mga kuya ko na nasa ibang bansa.. Galingan nyo mga kuya.

Note:
      Ang lahat ng mga kanta sa bagong album ng Sugarfree ay naka Half-Step
Down,ibig sabihin mas mababa ng 1 fret sa standard tuning,tignan nyo muna kung anong 
bago kau magcomment ah.Cguro nasa 95% sure ako dito sa chords ko.Maraming Salamat! Paki 
narin po ah..Godbless and RocK ON!

Gtr.Legends:
 . - palm muted
 / - slides
 ~ - let it ring


Tuning: Half-Step Down (Eb Ab Db Gb Bb eb)


Intro part 1:
eb|--------------------|            e|-------|
Bb|--00-0--0-----------|            B|-------|
Gb|--22-1--1-----------|     Then   G|-------|
Db|--22-2--2-----------| 4x         D|--777--|
Ab|--00-0--2-----------|            A|--777--|
Eb|--------0-----------|            E|--555--|

Intro part 2:
eb|----------------------------------------------------------------|
Bb|----------------------------------------------------------------|
Gb|--------------------------------------------------------4~------|
Db|-77777777-66666666-4444444-222222-7777777-666666-444444-4~------|
Ab|-77777777-77777777-4444444-222222-7777777-777777-444444-2~------|
Eb|-55555555-44444444-2222222-000000-5555555-444444-222222---------|

Verse: "Dear kuya....
eb|----------------------|
Bb|----------------------|
Gb|--------2222-4444-----|
Db|---2222-2222-4444-----|  9x
Ab|---2222-0000-2222-----|
Eb|---0000---------------|
      .... .... ....

Pre-Chorus: "Kami tuloy dito..."
eb|--------------------------|
Bb|--------------------------|
Gb|---7~--7~--7~--4~-444444--|
Db|---7~--7~--7~--4~-444444--|
Ab|---5~--5~--5~--2~-222222--|
Eb|--------------------------|

Chorus: "Nasan ka man ngayon.."
eb|-------------------------------------------------------------------------|
Bb|-------------------------------------------------------------------------|
Gb|--------------------------------------------------------44444-------4~---|
Db|-77777777-66666666-4444444-222222-7777777-666666-444444-44444-44444-4~---|
Ab|-77777777-77777777-4444444-222222-7777777-777777-444444-22222-44444-2~---|
Eb|-55555555-44444444-2222222-000000-5555555-444444-222222-------22222------|


Verse:
eb|----------------------|
Bb|----------------------|
Gb|--------2222-4444-----|
Db|---2222-2222-4444-----|  6x
Ab|---2222-0000-2222-----|
Eb|---0000---------------|
      .... .... ....

eb|----------------------|
Bb|----------------------|
Gb|--------2222-4444-----|
Db|---2222-2222-4444-----|  3x
Ab|---2222-0000-2222-----|
Eb|---0000---------------|


Pre-Chorus: "Galingan mo mag ingles...."
eb|---------------------|
Bb|---------------------|
Gb|---7777777--4444444--|
Db|---7777777--4444444--|
Ab|---5555555--2222222--|
Eb|---------------------|


Repeat Chorus 2x


Bridge: "Dear kuya..."
eb|--------------|
Bb|-----0~-0~----|
Gb|--1~-2~-4~----|   4x
Db|--2~-2~-4~----|
Ab|--2~-0~-2~----|
Eb|--0-----------|

   "San ka raw nagpunta....
eb|----------------------------|
Bb|-------------------------P--|
Gb|---77777777777--44444444-A--|
Db|---77777777777--44444444-U--|
Ab|---55555555555--22222222-S--|
Eb|-------------------------E--|
      ......

Chorus:

  "Nasanman ka man ngayon.."
eb|-------------------------------------------------------------------------|
Bb|-------------------------------------------------------------------------|
Gb|--------------------------------------------------------44444-------4444-|  2x
Db|-77777777-66666666-4444444-222222-7777777-666666-444444-44444-44444-4444-|
Ab|-77777777-77777777-4444444-222222-7777777-777777-444444-22222-44444-2222-|
Eb|-55555555-44444444-2222222-000000-5555555-444444-222222-------22222------|

"Parang nandito ka na rin..."
 -------------------------|
 -------------------------|
 -------4444--------4~----|
 -44444-44444-44444-4~----|
 -44444-22222-44444-2~----|
 -22222-------22222-------|


Outro:
eb|--------------------|
Bb|--00-0--0-----------|
Gb|--22-1--1-----------|
Db|--22-2--2-----------| 4x
Ab|--00-0--2-----------|
Eb|--------0-----------|


Last Chords:

eb|--------|
Bb|--------|
Gb|--------|
Db|---2~---|
Ab|---2~---|
Eb|---0~---|


End

Dear Kuya Lyrics:

Verse:
Dear kuya, kumusta ka na dyan?
Anong balita, malamig ba dyan? Dito mainit
pero kung bumagyo, para bang lahat ng tubig sa mundo ay nandito

Matagal na rin, mula nang ika’y magpasyang subukan
ang swerte, at abutin ang yong mga pangarap
Sa ibang bansa kung saan ikaw ay lagging mag-isa
kami tuloy dito, nag-aalala

Chorus:
Nasan ka man ngayon, ano mang oras na
ika’y may kailangan, tawag ka lang sa amin
at parang nandito ka na rin

Verse:
Oo nga pala, kung nasayo pa ang checkered na
polo ko, sa yo na yan. Hanap kana rin
ng maraming mapapaglibangan dahil balita ko

mahal daw ang sine dyan
Dambuha daw mga pinapakain dyan
tataba ka malamang. Miss mo bang magtagalog?
Kuya pag may kumausap sayo
galingan mong mag-ingles, galingan mo kuya

Bridge:
Dear kuya, hinahanap ka ni mama at daddy
sulat ka palagi.
Miss ka namin, pati nga kapitbahay nagtatanong
san ka raw nagpunta? san ka raw nagpunta?
Nasan ka na…
Kuyaaaaaaaaaaaaaaaaaaaaaaaaaaaaaaaaaaaa!!!

Repeat Chorus 2x


Ang mga anumang bayulenteng reaksyon ay maluwag kong tinatanggap,, kaya kung may mali sa
ko,, i-PM nyo nalang o magpost kayo sa comments.. Salamat,,
            
Submit corrections


        Dear Kuya lessons Hard to play? Try these video lessons and learn fast Dear Kuya lessons
        
↑ Back to top | Tablatures and chords for acoustic guitar and electric guitar, ukulele, drums are parodies/interpretations of the original songs. You may use it for private study, scholarship, research or language learning purposes only