Home » S » Sugar Cult »

Sugar Cult - Your The One Tabs

Artists:  A B C D E F G H I J K L M N O P Q R S T U V W X Y Z # 

Your The One Tabs

(ver. 2) Click to play this song!
Sugar Cult
 Rating:
4/5 (4 votes)
                YOUR THE ONE - SOLO 1 

e----------------------------------------------------------------------------
B----------------------------------------------------------------------------
G-------------14-------------------------14-14-13-14-16----------------------
D--------16------14-13------------16-----------------------------------------
A-14---------------------------14--------------------------------------------
E----------------------------------------------------------------------------


YOUR THE ONE - SOLO 2

e----------------------------------------------------------------------------
B----------------------------------------------------------------------------
G-------------14-------------------------------------------------------------
D--------16------14-13------14-13-13-13-13-14-13-----------------------------
A-14---------------------------------------------16--------------------------
E----------------------------------------------------------------------------

ta darr! th@s it.

some notes ae played multiple times, listen 2 the trach for the rhythm

this is my first tab, so feedback is appreciated:

cyber bezerker :-)
            
Submit corrections

↑ Back to top | Tablatures and chords for acoustic guitar and electric guitar, ukulele, drums are parodies/interpretations of the original songs. You may use it for private study, scholarship, research or language learning purposes only