Home » S » Sugar Cult »

Sugar Cult - Pretty Girl The Way Tabs

Artists:  A B C D E F G H I J K L M N O P Q R S T U V W X Y Z # 

Pretty Girl The Way Tabs

(ver. 3) Click to play this song!
Sugar Cult
 Rating:
1.8/5 (29 votes)
                Intro:

Guitar 1: (x2)
e|-----1-------1-------1-------1------------------------------------|
B|-2-------1-------2-------1------------4-------4-------4-------4---|
G|---3---3---3---3---3---3---3---3--3-------5-------6-------5-------|
D|------------------------------------4---4---4---4---4---4---4---4-|
A|------------------------------------------------------------------|
D|------------------------------------------------------------------|


Pre-Verse:

Guitar 1:
e|-0-0-X-0--0-0-X-0--0-0-X-0--0-0-X-0-|        |-------------|
B|-1-1-X-1--0-0-X-0--3-3-X-3--1-1-X-1-| (x2)   |-------------|
G|-2-2-X-2--2-2-X-2--2-2-X-2--2-2-X-2-|        |-XXX-3/5\3---|
D|-2-2-X-2--2-2-X-2--3-3-X-3--3-3-X-3-|        |-XXX-X/X\X---|
A|-0-0-X-0--0-0-X-0--0-0-X-0--0-0-X-0-|        |-XXX-1/3\1---|
D|------------------------------------|        |-------------|


Guitar 2:
e|-7----6----------------7----6---------------|
B|-----------7---------------------7----------|
G|---------------7---7-----------------7---7~-|
D|-----------------7---7-----------------7----|
A|--------------------------------------------|
D|--------------------------------------------|


(Verse 1 is Bass Only)


Pre-Chorus:

Guitar 1: (x2) (0:33)
e|-6---6---6---6---8---8---8---8---9---9---9---9---8---8---8---8---|
B|---6---6---6---6---6---6---6---6---6---6---6---6---6---6---6---6-|
G|-----------------------------------------------------------------|
D|-----------------------------------------------------------------|
A|-----------------------------------------------------------------|
D|-----------------------------------------------------------------|


Chorus:

Guitar 1:
e|-----------------|(x3) |---------|(x2)
B|-----------------|     |---------|
G|-----------------|     |---------|
D|-8-8-8-8-6-6-6-6-|     |-1-1-1-1-|
A|-8-8-8-8-6-6-6-6-|     |-1-1-1-1-|
D|-8-8-8-8-6-6-6-6-|     |-1-1-1-1-|

Guitar 2:
e|-4-6-4-6-4-------4-6-4-6-4-------4-6-4-6-4----------|
B|-----------6-4-2-----------6-4-2-----------6-4-2-4b-|
G|----------------------------------------------------|
D|----------------------------------------------------|
A|----------------------------------------------------|
D|----------------------------------------------------|


Pre-Verse:

Guitar 1:
e|-0-0-X-0--0-0-X-0--0-0-X-0--0-0-X-0-|        |-000---|
B|-1-1-X-1--0-0-X-0--3-3-X-3--1-1-X-1-| (x2)   |-111---|
G|-2-2-X-2--2-2-X-2--2-2-X-2--2-2-X-2-|        |-222---|
D|-2-2-X-2--2-2-X-2--3-3-X-3--3-3-X-3-|        |-333---|
A|-0-0-X-0--0-0-X-0--0-0-X-0--0-0-X-0-|        |-000---|
D|------------------------------------|        |-------|

Guitar 2:
e|-7----6----------------7----6---------------|
B|-----------7---------------------7----------|
G|---------------7---7-----------------7---7~-|
D|-----------------7---7-----------------7----|
A|--------------------------------------------|
D|--------------------------------------------|

Verse 2:

Guitar 1:
e|----6~~--|
B|-6~------|
G|---------|
D|---------|
A|---------|
D|---------|


Pre-Chorus:

Guitar 1: (x2)
e|-6---6---6---6---8---8---8---8---9---9---9---9---8---8---8---8---|
B|---6---6---6---6---6---6---6---6---6---6---6---6---6---6---6---6-|
G|-----------------------------------------------------------------|
D|-----------------------------------------------------------------|
A|-----------------------------------------------------------------|
D|-----------------------------------------------------------------|


Chorus: (x2 for both guitars)

Guitar 1:
e|-----------------|(x3) |---------|(x2)
B|-----------------|     |---------|
G|-----------------|     |---------|
D|-8-8-8-8-6-6-6-6-|     |-1-1-1-1-|
A|-8-8-8-8-6-6-6-6-|     |-1-1-1-1-|
D|-8-8-8-8-6-6-6-6-|     |-1-1-1-1-|

Guitar 2:
e|-7----6----------------7----6---------------|
B|-----------7---------------------7----------|
G|---------------7---7-----------------7---7~-|
D|-----------------7---7-----------------7----|
A|--------------------------------------------|
D|--------------------------------------------|


Solo:

Guitar 1:
e|-----------------------------------------| (x2)
B|-----------------------------------------|
G|-6-(x8)-\5-(x8)-/8-(x8)-/11-(x4)-\10(x4)-|
D|-X------\X------/X------/X-------\X------|
A|-4------\3------/6------/9-------\8------|
D|-----------------------------------------|

e|----------------|
B|----------------|
G|-3~~-3/5-3~~----|
D|-x---x-x-x------|
A|-1~~-1/3-1~~----|
D|----------------|

Guitar 2: (Strums strings as a wildly)


Chorus: (x2)

Guitar 1:
e|-----------------|(x3) |---------|(x2)
B|-----------------|     |---------|
G|-----------------|     |---------|
D|-8-8-8-8-6-6-6-6-|     |-1-1-1-1-|
A|-8-8-8-8-6-6-6-6-|     |-1-1-1-1-|
D|-8-8-8-8-6-6-6-6-|     |-1-1-1-1-|

End with:

e|---------|
B|---------|
G|---------|
D|-4-4-4-4-|
A|-4-4-4-4-|
D|-4-4-4-4-|


Second Solo:

Guitar 1:
e|-----------------------------------------| (x2)
B|-----------------------------------------|
G|-6-(x8)-\5-(x8)-/8-(x8)-/11-(x4)-\10(x4)-|
D|-X------\X------/X------/X-------\X------|
A|-4------\3------/6------/9-------\8------|
D|-----------------------------------------|

e|----------------|
B|----------------|
G|-3~~-3/5-3~~----|
D|-x---x-x-x------|
A|-1~~-1/3-1~~----|
D|----------------|

Guitar 2: (Strums strings as a wildly)

Outro:

Guitar 1:
e|-----------1-1-------------------------0-|
B|-7-7--6-4--2-2--4-4--7-7--6-4--------1---|
G|-8-8--6-5-------5-5--8-8--6-5------2-----|
D|---------------------------------2-------|
A|-------------------------------0---------|
D|-----------------------------------------|

Guitar 2:
e|----------------------|
B|----------------------|
G|-3~~~~~~~~~~~3~~~~~~~~|
D|----------------------|
A|----------------------|
D|----------------------|            
Submit corrections

↑ Back to top | Tablatures and chords for acoustic guitar and electric guitar, ukulele, drums are parodies/interpretations of the original songs. You may use it for private study, scholarship, research or language learning purposes only