» » »

Sugar Cult - How Does It Feel Tabs

Artists:  A B C D E F G H I J K L M N O P Q R S T U V W X Y Z # 

How Does It Feel Tabs

(ver. 1) Click to play this song!
Sugar Cult
 Rating:
4/5 (4 votes)

 How Does It Feel lessons Tabs too difficult? Try these video lessons and learn fast
 
                Intro 
Guitar 1
e|--------------6----|
B|--------------6----|
G|------8-------7----|
D|------8-x8----8----|
A|--6-6-6-------8----|
E|--------------6----|

Guitar 2
e|---------------|
B|---6h7p6-------|
G|----------7----|
D|---------------|
A|---------------|
E|---------------|


Verse         
e|-----------------------------------------|  
B|-----------------------------------------|  
G|----------10--------------8------10------|  X2
D|---8------10-x8---10------8-x8---10-x12--|
A|---8-x8---8-------10-x8---6------8-------|
E|---6--------------8----------------------|
Palm mute all apart from end


Chorus
e|-----------------------------|
B|-----------------------------|
G|-----------------------------|
D|--8------3------5------3-----|
A|--8-x8---3-x8---5-x8---3-x8--|
E|--6------1------3------1-----|


-Rob.K#
            
Submit corrections


        How Does It Feel lessons Hard to play? Try these video lessons and learn fast How Does It Feel lessons
        
↑ Back to top | Tablatures and chords for acoustic guitar and electric guitar, ukulele, drums are parodies/interpretations of the original songs. You may use it for private study, scholarship, research or language learning purposes only