» » »

Sugar Cult - Hate Every Beautiful Day Tabs

Artists:  A B C D E F G H I J K L M N O P Q R S T U V W X Y Z # 

Hate Every Beautiful Day Tabs

(ver. 2) Click to play this song!
Sugar Cult
 Rating:
4/5 (4 votes)

 Hate Every Beautiful Day lessons Tabs too difficult? Try these video lessons and learn fast
 
                p = pull off
h = hammer on
b = bend
* = palm mute

Intro Gtr. 1: [4x]
E|------------------------------------|
B|------------------------------------|
G|------------------------------------|
D|------------------6-6-----8-8-------|
A|--6-6-----2-2-----4-4-----6-6-------|
E|--4-4-----0-0-----------------------|

Intro Gtr. 2: [3x]			[last time: 1x]
E|------4-2-----4-2-----4-2-----------||------4-2-----4-2-----4-2-----------|
B|----0-------0-------0-------0-4p2h4-||----0-------0-------0-------0-2b4---|
G|------------------------------------||------------------------------------|
D|------------------------------------||------------------------------------|
A|------------------------------------||------------------------------------|
E|------------------------------------||------------------------------------|

Verse (both Guitars):
E|------------------------------------||------------------------------------|
B|--(2b4)-----------------------------||------------------------------------|
G|------------------------------------||------------------------------------|
D|------------------------------------||------------------6-6-----8-8-------|
A|------------------------------------||--6-6-----2-2-----4-4-----6-6-------|
E|------------------------------------||--4-4-----0-0-----------------------|

E|------------------------------------||------------------------------------|
B|------------------------------------||------------------------------------|
G|------------NO-GUITAR---------------||------------------------------------|
D|------------------------------------||------------------6-6-----8-8-88XX--|
A|------------------------------------||--6-6-----2-2-----4-4-----6-6-66XX--|
E|------------------------------------||--4-4-----0-0-----------------------|

Pre-chorus: [2x]
E|------------------------------------|
B|------------------------------------|
G|------------------------------------|
D|------------------6-6-6-6-8-8-8-8---|
A|--6-6-6-6-2-2-2-2-4-4-4-4-6-6-6-6---|
E|--4-4-4-4-0-0-0-0-------------------|
pm. * * * * * * * * * * * * * * * *

Chorus: [3x]
E|------------------------------------|
B|------------------------------------|
G|------------------------------------|
D|------------------6-6-6-6-8-8-8-8---|
A|--6-6-6-6-2-2-2-2-4-4-4-4-6-6-6-6---|
E|--4-4-4-4-0-0-0-0-------------------|

Intro
Verse
Pre-chorus
Chorus

Solo Gtr. 1:

E|------------------------------------||------------------------------------|
B|------------------------------------||------------------------------------|
G|--6p4-----6-------------------------||--6p4---6--------------4--6--4------|
D|------6p4-----6-4--6--4--1--4---4---||------6----6---4---6-----------6----|
A|------------------------------------||------------------------------------|
E|------------------------------------||------------------------------------|

E|------------------------------------||------------------------------------|
B|--8-8-8-8-4-4-4-4-3-3-3-3-1-1-1-1---||--8-8-8-8-4-4-4-4-3-3-3-3-1-1-1-1---|
G|------------------------------------||------------------------------------|
D|------------------------------------||------------------------------------|
A|------------------------------------||------------------------------------|
E|------------------------------------||------------------------------------|

Solo Gtr.2: [4x]
E|------------------------------------|
B|------------------------------------|
G|------------------------------------|
D|------------------6-6-6-6-8-8-8-8---|
A|--6-6-6-6-2-2-2-2-4-4-4-4-6-6-6-6---|
E|--4-4-4-4-0-0-0-0-------------------|

After solo (only Gtr.1 let ring)
E|------------------------------------||------------------------------------|
B|--(1)-------------------------------||--(1)-------------------------------|
G|------------------------------------||------------------------------------|
D|------------------------------------||------------------------------------|
A|------------------------------------||------------------------------------|
E|------------------------------------||------------------------------------|

Chorus

THE END

Please rate this!!!
            
Submit corrections


        Hate Every Beautiful Day lessons Hard to play? Try these video lessons and learn fast Hate Every Beautiful Day lessons
        
↑ Back to top | Tablatures and chords for acoustic guitar and electric guitar, ukulele, drums are parodies/interpretations of the original songs. You may use it for private study, scholarship, research or language learning purposes only