» » »

Sugar Cult - Bouncing Off The Walls Tabs

Artists:  A B C D E F G H I J K L M N O P Q R S T U V W X Y Z # 

Bouncing Off The Walls Tabs

(ver. 3) Click to play this song!
Sugar Cult
 Rating:
4/5 (4 votes)

 Bouncing Off The Walls lessons Tabs too difficult? Try these video lessons and learn fast
 
                BOUNCING OFF THE WALLS - Sugarcult 

Intro (clean) 4x then pickslide 
e-|------------------------------|---------|- 
B-|------------------------------|---------|- 
G-|----------6-6--6--4-4--4-4-4--|--\*-----|- 
D-|--4-4--4--6-6--6--4-4--4-4-4--|--\*-----|- 
A-|--4-4--4--4-4--4--2-2--2-2-2--|--\*-----|- 
E-|--2-2--2----------------------|---------|- 

Verse (distorted) 4x hold B 4th time around 
e-|------------------------------|---------|- 
B-|------------------------------|---------|- 
G-|----------6-6--6--4-4--4-4-4--|-4-4-4-4-|- 
D-|--4-4--4--6-6--6--4-4--4-4-4--|-4-4-4-4-|- 
A-|--4-4--4--4-4--4--2-2--2-2-2--|-2-2-2-2-|- 
E-|--2-2--2----------------------|---------|- 

Chorus 3x (let chords ring) 
e-|------------------------------|------------------|- 
B-|------------------------------|------------------|- 
G-|-------------4-4--6--2--4-----|---------6-6-6-6--|- 
D-|--2---2--2-2-4-4--6--2--4--4--|--2-2----6-6-6-6--|- 
A-|--2---2--2-2-2-2--4--0--2--4--|--2-2----4-4-4-4--|- 
E-|--0---0--0-0---------------2--|--0-0-------------|- 

Solo w/ wah 
e-|-----------------------------------------------------------------------|- 
B-|--11-7--11-7--12-12-12-12-12-12-12-12-12-12-\-----7-11-7--14-14-14-14--|- 
G-|-----------------------------------------------------------------------|- 
D-|-----------------------------------------------------------------------|- 
A-|-----------------------------------------------------------------------|- 
E-|-----------------------------------------------------------------------|- 

Solo cont'd 
e-|----------------------------------------------------------------------|- 
B-|--14-14-14-14-14-14-11-7--11-7---------------------------14-14-14-14--|- 
G-|--------------------------------10-11--13-11-10--10-\-6---------------|- 
D-|----------------------------------------------------------------------|- 
A-|----------------------------------------------------------------------|- 
E-|----------------------------------------------------------------------|- 

Solo cont'd 
e-|---------------------|- 
B-|--14-14-14-14-14-14--|- 
G-|---------------------|- 
D-|---------------------|- 
A-|---------------------|- 
E-|---------------------|- 

Bridge / this part 4x add this on the 4th time around 
e-|------------------------------|---------------|- 
B-|------------------------------|--------2------|- 
G-|-------------4-4--6--2--4-----|-----------3---|- 
D-|--2---2--2-2-4-4--6--2--4--4--|--4------------|- 
A-|--2---2--2-2-2-2--4--0--2--4--|--4------------|- 
E-|--0---0--0-0---------------2--|--2------------|- 

Bridge cont'd (slight distortion, palm muted) then this part 3x 
e-|-----------------------------------------------|----------------------------|- 
B-|-----------------------------------------------|----------------------------|- 
G-|-----------------------------------------------|----------------------------|- 
D-|-------------8-8--8-8-8------------9-9--9-9-9--|-------------4-4--4-6-6--6--|- 
A-|--2-2--2-2-2-6-6--6-6-6-2-2--2-2-2-7-7--7-7-7--|--2-2--2-2-2-2-2--2-4-4--4--|- 
E-|--0-0--0-0-0------------0-0--0-0-0-------------|--0-0--0-0-0----------------|- 

Bridge cont'd (guitar 2 for part above) 
e-|------------------------------|- 
B-|---------------------------4--|- 
G-|--3---------------------3-----|- 
D-|------------------------------|- 
A-|------------------------------|- 
E-|------------------------------|- 

Bridge cont'd 
e-|------------------------|- 
B-|------------------------|- 
G-|------------------------|- 
D-|-------------4-4--4--6--|- 
A-|--2-2--2-2-2-2-2--2--4--|- 
E-|--0-0--0-0-0------------|- 

Outro 4x (let chords ring) on the 4th time do this to end it 
e-|------------------------------|------------------------|- 
B-|------------------------------|------------------------|- 
G-|----------6-6--6--4-4--4-4-4--|---------6-6--6--4-4--4-|- 
D-|--4-4--4--6-6--6--4-4--4-4-4--|-4-4--4--6-6--6--4-4--4-|- 
A-|--4-4--4--4-4--4--2-2--2-2-2--|-4-4--4--4-4--4--2-2--2-|- 
E-|--2-2--2----------------------|-2-2--2-----------------|- 

Order: 
Intro 4x 
Verse 4x 
Chorus 4x 
Verse 4x 
Chorus 4x 
Solo 
Bridge 3x 
Verse 4x 
Outro 4x 

very cool song... 
            
Submit corrections


        Bouncing Off The Walls lessons Hard to play? Try these video lessons and learn fast Bouncing Off The Walls lessons
        
↑ Back to top | Tablatures and chords for acoustic guitar and electric guitar, ukulele, drums are parodies/interpretations of the original songs. You may use it for private study, scholarship, research or language learning purposes only