» » »

Sugababes - Push The Button Tabs

Artists:  A B C D E F G H I J K L M N O P Q R S T U V W X Y Z # 

Push The Button Tabs

(ver. 1) Click to play this song!
Sugababes
 Rating:
3.2/5 (24 votes)

 Push The Button lessons Tabs too difficult? Try these video lessons and learn fast
 
                Intro G# - G# - A# - D# (listen for the rhythm)


          Palm mute_____________          Palm mute_____________
E|---------------------------------------------------------------
B|---------------------------------------------------------------
G|---------------------------------------------------------------
D|--6--x--6--6--6--6--6--6--6--6----6--x--6--6--6--6--6--6--6--6-
A|--6--x--6--6--6--6--6--6--6--6----6--x--6--6--6--6--6--6--6--6-
E|--4--x--4--4--4--4--4--4--4--4----4--x--4--4--4--4--4--4--4--4-


          Palm mute_____________          Palm mute_____________
E|---------------------------------------------------------------
B|---------------------------------------------------------------
G|----------------------------------8--x--8--8--8--8--8--8--8--8-
D|--8--x--8--8--8--8--8--8--8--8----8--x--8--8--8--8--8--8--8--8-
A|--8--x--8--8--8--8--8--8--8--8----6--x--6--6--6--6--6--6--6--6-
E|--6--x--6--6--6--6--6--6--6--6---------------------------------

VERSE 1

G#
I'm busy throwing hints that he keeps missing 
G#
Don't have to think about it 
I Wanna kiss and 
A#
Everything around it but he's too distant 
D#
I wanna feel his body 
I can't resist it 

VERSE 2

G#
I know my hidden looks can be deceiving 
G#
But how obvious should a girl be? 
A#
I was taken by the early conversation piece 
      D#
And I really like the way that he respect me 

PRE-CHORUS

I've been waiting patiently for him to come and get it 

E|--------------------------------------------------
B|--------------------------------------------------
G|--8--8--8--8--10--10--10--10--12--12--12--12--13--
D|--x--x--x--x--x---x---x---x---x---x---x---x---x---
A|--6--6--6--6--8---8---8---8---10--10--10--10--11--
E|--------------------------------------------------

I wonder if he knows that he can say it and I'm with it 

E|--------------------------------------------------
B|--------------------------------------------------
G|--8--8--8--8--10--10--10--10--12--12--12--12--13--
D|--x--x--x--x--x---x---x---x---x---x---x---x---x---
A|--6--6--6--6--8---8---8---8---10--10--10--10--11--
E|--------------------------------------------------

I knew I had my mind made up from the very beginning 

E|------------------------------------------------------
B|------------------------------------------------------
G|--10--10--10--10--12--12--12--12--13--13--13--13--15--
D|--x---x---x---x---x---x---x---x---x---x---x---x---x---
A|--8---8---8---8---10--10--10--10--11--11--11--11--13--
E|------------------------------------------------------

Catch this opportunity so you and me could feel it 'cos 

E|--------------------------------------------------
B|--------------------------------------------------
G|--6----6----6----6----6----6----6----6----6-------
D|--x----x----x----x----x----x----x----x----x-------
A|--8----8----8----8----8----8----8----8----8-------
E|--------------------------------------------------

CHORUS

G#
If you're ready for me boy 
G#
You'd better push the button and let me know 
       A#
Before I get the wrong idea and go 
       D#
You're gonna miss the freak that I control 

VERSE 3

G#
I'm busy showing him what he's been missing 
G#
I'm kind of showing off for his full attention 
        A#
My sexy ass has got him in the new dimension 
    D#  
I'm ready to do something to relieve this mission 

PRE-CHORUS

BRIDGE (same as Verses)

PRE-CHORUS

CHORUS

OUTRO (CHORUS)

            
Submit corrections


        Push The Button lessons Hard to play? Try these video lessons and learn fast Push The Button lessons
        
↑ Back to top | Tablatures and chords for acoustic guitar and electric guitar, ukulele, drums are parodies/interpretations of the original songs. You may use it for private study, scholarship, research or language learning purposes only