Home » S » Subhumans »

Subhumans - No More Gigs Tabs

Artists:  A B C D E F G H I J K L M N O P Q R S T U V W X Y Z # 

No More Gigs Tabs

(ver. 1) Click to play this song!
Subhumans
SUBHUMANS-NO MORE GIGS       CG
PLAY ON O DRIVE OR DISTORTION
BOUNCE-MEANS BEARLY LIFT YOUR FINGERS OF THE STRINGS
SWP-MEANS SlIDE AND AT THE SAME TIME PICK THE STRING

INTRO YOU HAVE TO BOUNCE EVERY 11/ 11 AND 9 EVERY TIME YOU HIT THOSE STRING REAPET THIS SECTION OF THE INTRO 6 TIMES
E-----------------------------------------------------]
B-----------------------------------------------------]
G-11-11-11-11/14\11-11-11-11/14-14-14-14-14-14---12---]
D-11-11-11-11/14\11-11-11-11/14-14-14-14-14-14-13--11-]
A-9--9--9--9/12\9--9--9--9/12-12--12-12-12-12---------]
E-----------------------------------------------------]

E--------------------------------------------------------------]
B--------------------------------------------------------------]
G---------------11-11-11-11/14\11-11-11-11/14-14-14-14-14-14---]
D---------------11-11-11-11/14\11-11-11-11/14-14-14-14-14-14---]
A-8/15-15\9-9/15-9--9--9--9/12\9--9--9--9/12-12-12-12-12-12----]
E--------------------------------------------------------------]

E--------------------------------------------------------------------]
B--------------------------------------------------------------------]
G-11-11-11-11---11-11-----13--11-11-11-11---11-11-----13-----------]
D-11-11-11-11--------12-12--13-11-11-11-11-------12-12--13-13-13---]
A-9--9--9--9--------------------9--9--9--9--------------------------]
E--------------------------------------------------------------------]

E------------------------------------------------------------]
B------------------------------------------------------------]
G-11-11-11-11---11-11-----13----11-11-11-11--11-11-----13----]
D-11-11-11-11--------12-12--13--11-11-11-11-------12-12--13--]
A-9--9--9--9--------------------9--9--9--9-------------------]
E------------------------------------------------------------]

E------------------------------------------------------------]
B------------------------------------------------------------]
G-11-11-11-11--11-11-----13----11-11-11-11--11-11-----13-----]
D-11-11-11-11-------12-12--13--11-11-11-11-------12-12--13---]
A-9--9--9--9-------------------9--9--9--9--------------------]
E------------------------------------------------------------]
VERSE REPEAT 19 TIMES
E--------------------------------]
B--------------------------------]
G-11-11-11-11/14-14-14-14-14-14--]
D-11-11-11-11/14-14-14-14-14-14--]
A-9--9--9--9/12--12-12-12-12-12--]
SOLO
E-----------------------------------------------------------------------------------]
B-----------------------------------------------------------------------------------]
G-----------------------------------------------------------------------------------]
D-----------------------------------------------------------------------------------]
A-12-12-12/15-15-15/12-12-12/15-15-15/12-12-12/15-15-15/12-12-12/15-15-15/12-12-12--]
E-----------------------------------------------------------------------------------]

E-----------------------------------------------------------------------------]
B-----------------------------------------------------------------------------]
G---13/14--14/13--13/14-----1SWP17-17SWP1-1SWP17-----------11------11---------]
D-12-----15-----12-----15-----------------------------12-------12-------12----]
A-----------------------------------------------------------------------------]
E-----------------------------------------------------------------------------]
            
Submit corrections

↑ Back to top | Tablatures and chords for acoustic guitar and electric guitar, ukulele, drums are parodies/interpretations of the original songs. You may use it for private study, scholarship, research or language learning purposes only