Home » S » Subb »

Subb - Straight Line, Twisted Mind Tabs

Artists:  A B C D E F G H I J K L M N O P Q R S T U V W X Y Z # 

Straight Line, Twisted Mind Tabs

(ver. 1) Click to play this song!
Subb
Subb - Straight line twisted mind

intro
e|---------------------------------------------------------------------------|
B|---------------------------------------------------------------------------|
G|-------5---7---------------------------------------------------------------|
D|---7---5---7---5----x5-----------------------------------------------------|
A|---7---3---5---5-----------------------------------------------------------|
E|---5-----------3-----------------------------------------------------------|

verse 
e|---------------------------------------------------------------------------|
B|---------------------------------------------------------------------------|
G|---------------------------55----------------------------------------------|
D|--77777777777----333333----55---55---x4------------------------------------|
A|--77777777777----333333----33---55-----------------------------------------|
E|--55555555555----111111---------33-----------------------------------------|

chorus 
e|---------------------------------------------------------------------------|
B|---------------------------------------------------------------------------|
G|--------------------------5------------------------------------------------|
D|--7777777777-----333333---5---5-----x4-------------------------------------|
A|--7777777777-----333333---3---5--------------------------------------------|
E|--5555555555-----111111-------3--------------------------------------------|

repeat verse
repest chorus

e|---------------------------------------------------------------------------|
B|-------------------------------pm....................----------------------|
G|-------555---777---------------------555---777-----------------------------|
D|--777--555---777---555---x4----777---555---777---555---x4------------------|
A|--777--333---555---555---------777---333---555---555-----------------------|
E|--555--------------333---------555---------------333-----------------------|

e|---------------------------------------------------------------------------|
B|---------------------------------------------------------------------------|
G|---------------------------------------------------------------------------|
D|--7777---7777---7777---777-----7-------------------------------------------|
A|--7777---7777---7777---777-----7-------------------------------------------|
E|--5555---5555---5555---555-----5-------------------------------------------|
            
Submit corrections

↑ Back to top | Tablatures and chords for acoustic guitar and electric guitar, ukulele, drums are parodies/interpretations of the original songs. You may use it for private study, scholarship, research or language learning purposes only