» » »

Subb - My Pride Tabs

Artists:  A B C D E F G H I J K L M N O P Q R S T U V W X Y Z # 

My Pride Tabs

(ver. 1) Click to play this song!
Subb
 Rating:
4/5 (4 votes)

 My Pride lessons Tabs too difficult? Try these video lessons and learn fast
 
                Subb - My Pride 

intro    

e|---------------------------------------------------------------------------|
B|---------------------------------------------------------------------------|
G|---777-------------------------------77-77-77------------------------------|
D|---777---777---333---555---x3---2----77-77-77------------------------------|
A|---555---777---333---555--------2----55-55-55------------------------------|
E|---------555---111---333--------0------------------------------------------|

verse
e|---------------------------------------------------------------------------|
B|--pm...--------------------------------------------------------------------|
G|--7777777777--------555-------333-------5--5-------------------------------|
D|--7777777777---3-3--555--5-5--333--x4---5--5----7--7-----------------------|
A|--5555555555---3-3--333--5-5--111-------3--3----7--7-----------------------|
E|---------------1-1-------3-3--------------------5--5-----------------------|

chorus
e|---------------------------------------------------------------------------|
B|---------------------------------------------------------------------------|
G|---777---------------------------------------------------------------------|
D|---777---333---555---888---------------------------------------------------|
A|---555---333---555---888---------------------------------------------------|
E|---------111---333---666---------------------------------------------------|

bridge 
e|---------------------------------------------------------------------------|
B|---------------------------------------------------------------------------|
G|--7---7/10--10/12---12/14---12--10--7--------------------------------------|
D|---------------------------------------------------------------------------|
A|--5---5/8----8/10---10/12---10--8---5--------------------------------------|
E|---------------------------------------------------------------------------|
            
Submit corrections


        My Pride lessons Hard to play? Try these video lessons and learn fast My Pride lessons
        
↑ Back to top | Tablatures and chords for acoustic guitar and electric guitar, ukulele, drums are parodies/interpretations of the original songs. You may use it for private study, scholarship, research or language learning purposes only