» » »

Subb - Me And My Maxwell House Tabs

Artists:  A B C D E F G H I J K L M N O P Q R S T U V W X Y Z # 

Me And My Maxwell House Tabs

(ver. 1) Click to play this song!
Subb
 Rating:
4/5 (4 votes)

 Me And My Maxwell House lessons Tabs too difficult? Try these video lessons and learn fast
 
                Subb -  Me and my maxwell house

intro guitar # 1
e|---------------------------------------------------------------------------|
B|---------------------------------------------------------------------------|
G|--999999999-----7777---------7777-----8------------------------------------|
D|--999999999-----7777----7----7777-----8--------x4--------------------------|
A|--777777777-----5555----7----5555-----6------------------------------------|
E|------------------------5--------------------------------------------------|

intro guitar #2
e|---------------------------------------------------------------------------|
B|--^------------------------------------------------------------------------|
G|--9-----9-10-12-14-12-9-10-12-14-12-10-12-12-12-12-10-10------x2-----------|
D|---------------------------------------------------------------------------|
A|---------------------------------------------------------------------------|
E|---------------------------------------------------------------------------|

verse 
e|---------------------------------------------------------------------------|
B|---------------------------------------------------------------------------|
G|-99999999-----7777-----6666------------------------------------------------|
D|-99999999-----7777-----7777-----x4-----------------------------------------|
A|-77777777-----5555-----7777------------------------------------------------|
E|-----------------------5555------------------------------------------------|

chorus  
e|---------------------------------------------------------------------------|
B|---------------------------------------------------------------------------|
G|--9999-9999-999------------------------------------------------------------|
D|--9999-9999-999---77777---9999------x4-------------------------------------|
A|--7777-7777-777---77777---9999---------------------------------------------|
E|------------------55555---7777---------------------------------------------|

repeat intro
Repeat verse
riff verse 2
e|---------------------------------------------------------------------------|
B|---------------------------------------------------------------------------|
G|--9----11p12---12p11---11p14---12--10----10p12p10p12p10--------------------|
D|---------------------------------------------------------------------------|
A|---------------------------------------------------------------------------|
E|---------------------------------------------------------------------------|

repeat chorus
repeat intro
            
Submit corrections


        Me And My Maxwell House lessons Hard to play? Try these video lessons and learn fast Me And My Maxwell House lessons
        
↑ Back to top | Tablatures and chords for acoustic guitar and electric guitar, ukulele, drums are parodies/interpretations of the original songs. You may use it for private study, scholarship, research or language learning purposes only