» » »

Subb - Head On The Floor Tabs

Artists:  A B C D E F G H I J K L M N O P Q R S T U V W X Y Z # 

Head On The Floor Tabs

(ver. 1) Click to play this song!
Subb
 Rating:
4/5 (4 votes)

 Head On The Floor lessons Tabs too difficult? Try these video lessons and learn fast
 
                
Intro 1
e|---------------------|-----------------------------------------------------|
B|---------------------|-----------------------------------------------------|
G|----------8--6--4--3-|---------8-6-4-3-------8-9-8-------------------------|
D|-6----6--------------|----66---x-x-x-x---44--x-x-x------x2-----------------|
A|-6----6---6--4--2--1-|----66---6-4-2-1---44--6-7-6-------------------------|
E|-4----4--------------|----44-------------22--------------------------------|

Intro 2 1x
e|---------------------------------------------------------------------------|
B|---------------------------------------------------------------------------|
G|----------8--6--4--3----------8-9-8----------------------------------------|
D|-666666---x--x--x--x---444444-x-x-x----------------------------------------|
A|-666666---6--4--2--1---444444-6-7-6----------------------------------------|
E|-444444----------------222222----------------------------------------------|
pm  -----                 -----

Intro 3 1x
e|---------------------------------------------------------------------------|
B|---------------------------------------------------------------------------|
G|----------8--6--4--3----------8-9-10-11-13---------------------------------|
D|-666666---x--x--x--x---444444-x-x-x--x--x----------------------------------|
A|-666666---6--4--2--1---444444-6-7-8--9--11---------------------------------|
E|-444444----------------222222----------------------------------------------|
pm  -----                -- --

Intro 4 4x
e|---------------------------------------------------------------------------|
B|---------------------------------------------------------------------------|
G|-----------------------------------66-6--6--66--6--------------------------|
D|-66-6--6--66-6--6--66--6--22-2--2--66-6--6--66--6--------------------------|
A|-66-6--6--66-6--6--66--6--22-2--2--44-4--4--44--4--------------------------|
E|-44-4--4--44-4--4--44--4--00-0--0------------------------------------------|
pm ----     ----     --     ----     ----     --

Intro 4 guitar2 3rd time ()=second time
e|---------------------------------------------------------------------------|
B|---------------------------------------------------------------------------|
G|-14-14-14-14-14-14-14-14--15-14-9-10(h9p10)--------------------------------|
D|---------------------------------------------------------------------------|
A|---------------------------------------------------------------------------|
E|---------------------------------------------------------------------------|

Verse clean 2x                            
e|-------------------------------|
B|-------------------------------|
G|--------------6----------------|
D|--6-----2-----6-----4----------|
A|--6-----2-----4-----4----------|
E|--4-----0-----------2----------|

Chorus 2x
e|---------------------------------------------------------------------------|
B|---------------------------------------------------------------------------|
G|----------44444444-99999999-66666666---------------------------------------|
D|-66666666-44444444-99999999-66666666---------------------------------------|
A|-66666666-22222222-77777777-44444444---------------------------------------|
E|-44444444------------------------------------------------------------------|

Intro 1 2x
|-----------------------------------------------------|
|-----------------------------------------------------|
|---------8-6-4-3-------8-9-8-------------------------|
|----66---x-x-x-x---44--x-x-x------x2-----------------|
|----66---6-4-2-1---44--6-7-6-------------------------|
|----44-------------22--------------------------------|

Intro 2 1x
e|---------------------------------------------------------------------------|
B|---------------------------------------------------------------------------|
G|----------8--6--4--3----------8-9-8----------------------------------------|
D|-666666---x--x--x--x---444444-x-x-x----------------------------------------|
A|-666666---6--4--2--1---444444-6-7-6----------------------------------------|
E|-444444----------------222222----------------------------------------------|
pm  -----                 -----

Intro 3 1x
e|---------------------------------------------------------------------------|
B|---------------------------------------------------------------------------|
G|----------8--6--4--3----------8-9-10-11-13---------------------------------|
D|-666666---x--x--x--x---444444-x-x-x--x--x----------------------------------|
A|-666666---6--4--2--1---444444-6-7-8--9--11---------------------------------|
E|-444444----------------222222----------------------------------------------|
pm  -----                -- --

Intro 4 4x
e|---------------------------------------------------------------------------|
B|---------------------------------------------------------------------------|
G|-----------------------------------66-6--6--66--6--------------------------|
D|-66-6--6--66-6--6--66--6--22-2--2--66-6--6--66--6--------------------------|
A|-66-6--6--66-6--6--66--6--22-2--2--44-4--4--44--4--------------------------|
E|-44-4--4--44-4--4--44--4--00-0--0------------------------------------------|
pm ----     ----     --     ----     ----     --

Intro 4 guitar2 3rd time ()=second time
e|---------------------------------------------------------------------------|
B|---------------------------------------------------------------------------|
G|-14-14-14-14-14-14-14-14--15-14-9-10(h9p10)--------------------------------|
D|---------------------------------------------------------------------------|
A|---------------------------------------------------------------------------|
E|---------------------------------------------------------------------------|

Repeat Verse

Repeat Chorus

Bridge
e|---------------------------------------------------------------------------|
B|---------------------------------------------------------------------------|
G|-8-----66---8------8--8-6-8-9-8-8-9-8---6---11-9-8-9-8-8-6-8-9-8-8-9-8--12-|
D|---------------------------------------------------------------------------|
A|---------------------------------------------------------------------------|
E|---------------------------------------------------------------------------|

e|---------------------------------------------------------------------------|
B|---------------------------------------------------------------------------|
G|------434-------434-------434--6-6--8-8------------------------------------|
D|-6-6-------2-2-------4-4-------6-6--8-8-------x4---------------------------|
A|-6-6-------2-2-------4-4-------4-4--6-6------------------------------------|
E|-4-4-------0-0-------2-2---------------------------------------------------|
repeat chorus
repeat intro
            
Submit corrections


        Head On The Floor lessons Hard to play? Try these video lessons and learn fast Head On The Floor lessons
        
↑ Back to top | Tablatures and chords for acoustic guitar and electric guitar, ukulele, drums are parodies/interpretations of the original songs. You may use it for private study, scholarship, research or language learning purposes only