» » »

Subb - Daylight Savings Tabs

Artists:  A B C D E F G H I J K L M N O P Q R S T U V W X Y Z # 

Daylight Savings Tabs

(ver. 1) Click to play this song!
Subb
 Rating:
4/5 (4 votes)

 Daylight Savings lessons Tabs too difficult? Try these video lessons and learn fast
 
                this is Subb's song Daylight Savings... These guys are Montreal pop punk/ska-er's and I am sure you have heard of them!

intro 
e|------------------------xxx-----------|
B|------------------------xxx-----------|
G|----66-88---------66-88-xxx-4/6/4--x4-|
D|-55-66-88--x2--55-66-88-xxx-4/6/4-----|
A|-55-44-66------55-44-66-xxx-2/4/2-----|
E|-22------------22-------xxx-----------|

verse (palm muted) 
e|--------------------------------------|
B|--------------------------------------|
G|---66-88------------------------------|
D|---66-88-x3---------------------------|
A|---44-66------------------------------|
E|-22-----------------------------------|
            
Submit corrections


        Daylight Savings lessons Hard to play? Try these video lessons and learn fast Daylight Savings lessons
        
↑ Back to top | Tablatures and chords for acoustic guitar and electric guitar, ukulele, drums are parodies/interpretations of the original songs. You may use it for private study, scholarship, research or language learning purposes only