Home » S » Subb »

Subb - Better Than Me Tabs

Artists:  A B C D E F G H I J K L M N O P Q R S T U V W X Y Z # 

Better Than Me Tabs

(ver. 1) Click to play this song!
Subb
 Rating:
4/5 (4 votes)
                Subb : Better than me

intro
e|---------------------------------------------------------------------------
B|---------------------------------------------------------------------------
G|--7---5---4---2------------------------------------------------------------
D|--7---5---4---2---5--5-5-5-5-5-5-5-5-5-5-5---------------------------------
A|--5---3---2---0---5--5-5-5-5-5-5-5-5-5-5-5----2---3--2---3--2---3-5555-3-2-
E|------------------3--3-3-3-3-3-3-3-3-3-3-3---3--33--3--33--3--33-----------

verse
e|---------------------------------------------------------------------------
B|---------------------------------------------------------------------------
G|-4-4-4-4----5-5-5-5----4-4-4-4----7-7-7-7----------------------------------
D|-5-5-5-5----5-5-5-5----5-5-5-5----7-7-7-7-------x4-------------------------
A|-5-5-5-5----3-3-3-3----5-5-5-5----5-5-5-5----------------------------------
E|-3-3-3-3---------------3-3-3-3---------------------------------------------

chorus
e|---------------------------------------------------------------------------
B|---------------------------------------------------------------------------
G|-----------55555----77777--------------------------------------------------
D|--55555----55555----77777-----x4-------------------------------------------
A|--55555----33333----55555--------------------------------------------------
E|--33333--------------------------------------------------------------------


bridge   
e|---------------------------------------------------------------------------
B|---------------------------------------------------------------------------
G|--4-4----5-5----4-4----7-7-------------------------------------------------
D|--5-5----5-5----5-5----7-7---------x4--------------------------------------
A|--5-5----3-3----5-5----5-5-------------------------------------------------
E|--3-3-----------3-3--------------------------------------------------------

outro
e|---------------------------------------------------------------------------
B|---------------------------------------------------------------------------
G|--4----7----5----4----4----------------------------------------------------
D|--5----7----5----4----5----------------------------------------------------
A|--5----5----3----2----5----------------------------------------------------
E|--3-------------------3----------------------------------------------------
            
Submit corrections

↑ Back to top | Tablatures and chords for acoustic guitar and electric guitar, ukulele, drums are parodies/interpretations of the original songs. You may use it for private study, scholarship, research or language learning purposes only