» » »

Styx - Rockin The Paradise Tabs

Artists:  A B C D E F G H I J K L M N O P Q R S T U V W X Y Z # 

Rockin The Paradise Tabs

(ver. 1) Click to play this song!
Styx
 Rating:
4/5 (4 votes)

 Rockin The Paradise lessons Tabs too difficult? Try these video lessons and learn fast
 
                -------------------------------------------------------------------------------
                             Rockin' the Paradise - Styx
-------------------------------------------------------------------------------

Tuning: standard

intro order

intro riff 1 x1
intro riff 2 x1
repeat 4x

intro riff 1
       [---3-----------------------------------------|
e|---------------------------------------------------|
B|--14-14-14-14--15-14-14--12--12-12--12-12/14-------|
G|--14-14-14-14--14-14-14--12--12-12--12-12/14-------|
D|--14-14-14-14--16-14-14--12--12-12--12-12/14-------|
A|---------------------------------------------------|
E|---------------------------------------------------|

intro riff 2
      [---3---------------------------------------------|
e|------------------------------------------------------|
B|-14--14-14-14--15-14-14-15-14-14-12-12-12/14----------|
G|-14--14-14-14--14-14-14-14-14-14-12-12-12/14----------|
D|-14--14-14-14--16-14-14-16-14-14-12-12-12/14----------|
A|------------------------------------------------------|
E|------------------------------------------------------|
then they keyboard part

e|------------------------------------------------|
B|-14\-14\-14\------14\---------------------------|
G|-14\-14\-14\------14\---------------------------|
D|-14\-14\-14\------14\---------------------------|
A|------------------------------------------------|
E|------------------------------------------------|

verse through whole song
e|-----------------------------------------------|
B|-----------------------------------------------|
G|-----------------------------------------------|
D|-2---4---4-2---4--4--7--2---2------------------|
A|-0---2---2-0---2--2--5--0---0------------------|
E|-----------------------------------------------|

well thats the baisic tab for this song, its a great song and i thought it deserved a 
and i'll get the fills and solos in eventually

| /  slide up
| \  slide down
| h  hammer-on
| p  pull-off
| ~  vibrato
| +  harmonic
| x  Mute note
[--3--] triplets
            
Submit corrections


        Rockin The Paradise lessons Hard to play? Try these video lessons and learn fast Rockin The Paradise lessons
        
↑ Back to top | Tablatures and chords for acoustic guitar and electric guitar, ukulele, drums are parodies/interpretations of the original songs. You may use it for private study, scholarship, research or language learning purposes only