» » »

Styx - Boat On The River Tabs

Artists:  A B C D E F G H I J K L M N O P Q R S T U V W X Y Z # 

Boat On The River Tabs

(ver. 2) Click to play this song!
Styx
 Rating:
4/5 (4 votes)

 Boat On The River lessons Tabs too difficult? Try these video lessons and learn fast
 
                -------------------------------------------------------------------------------
                             BOAT ON THE RIVER - Styx
-------------------------------------------------------------------------------

Tuning: nothing special- make sure the guitar IS in tune though

e|----------3-3--35-6--10--6-5-6-3--56-8-10-65-6--8888-65-5-3-11--2222-2-3-5-|
B|------1-3------------------------------------------------------------------|
G|-0-23----------------------------------------------------------------------|
D|---------------------------------------------------------------------------|
A|---------------------------------------------------------------------------|
E|---------------------------------------------------------------------------|

e|-5-6-10-6-5-6--3333-5-666-5-3-6666-8-666-5-3-1-2-3-5-3-1--------------------|
B|---------------3333-5-666-5-3-6666-8-666-5-3------------31--------13--------|
G|--------------*0000---------------------------------------32-0--23--32-320--|
D|--------------------------------------------------------------------------3-|
A|----------------------------------------------------------------------------|
E|----------------------------------------------------------------------------|

*optional (you dont have to play these notes if its too hard, but I think it sounds cooler)

And yep- here's my tab to the solo. It didn't take too long to figure out, but it sounds 
to me.
            
Submit corrections


        Boat On The River lessons Hard to play? Try these video lessons and learn fast Boat On The River lessons
        
↑ Back to top | Tablatures and chords for acoustic guitar and electric guitar, ukulele, drums are parodies/interpretations of the original songs. You may use it for private study, scholarship, research or language learning purposes only