Home » S » Stuart Hamm »

Stuart Hamm - Country Music Bass

Artists:  A B C D E F G H I J K L M N O P Q R S T U V W X Y Z # 

Country Music Bass

(ver. 1) Click to play this song!
Stuart Hamm
 Rating:
4/5 (4 votes)
                T - Thumb Slap
P - Pop
L - Left Hand Tap
R - Right Hand Tap


"You're guys got anything country?  Wait, yeah, here's one..."
 
G|---------------|---------------|---------------|---------------|
D|---------------|---------------|---------------|---------------|
A|---------------|---------------|---------------|---------0---2-|
E|---------------|---------------|---------------|-----3---------|
                                                       T   T   T    

G|----17-----17--|----17-----17--|----17-----17--|----17-17----17--|
D|----17-----17--|----17-----17--|----17-----17--|----17-17----17--|
A|-3-------------|-3-------------|-3-------------|-3---------------|
E|--------3------|--------3------|--------3------|-----------3-----|
   L   R  L   R    L   R  L   R    L   R  L   R    L   R  R  L  R

G|----17-----17--|----17-----17--|----17-----17--|----17-17----17--|
D|----17-----17--|----17-----17--|----17-----17--|----17-17----17--|
A|-3-------------|-3-------------|-3-------------|-3---------------|
E|--------3------|--------3------|--------3------|-----------3-----|
   L   R  L   R    L   R  L   R    L   R  L   R    L   R  R  L  R

G|----17-----17--|----17-----17--|----17-----17--|----17-----17--|
D|----17-----17--|----17-----17--|----17-----17--|----17-----17--|
A|-3-------------|-3-------------|-3-------------|-3-------------|
E|--------3------|--------3------|--------3------|--------3------|
   L   R  L   R    L   R  L   R    L   R  L   R    L   R  L   R

G|----17-----17--|----17-----17--|----17-----17--|----17-----17--|
D|----19-----19--|----19-----19--|----17-----17--|----17-----17--|
A|--------7------|--------7------|-3-------------|-3-------------|
E|-5-------------|-5-------------|--------3------|--------3------|
   L   R  L   R    L   R  L   R    L   R  L   R    L   R  L   R

G|----17-----17--|----17-----17--|----17-----17--|----17-----17--|
D|----19-----19--|----19-----19--|----17-----17--|----17-----17--|
A|--------7------|--------7------|-3-------------|-3------5------|
E|-5-------------|-5-------------|--------3------|---------------|
   L   R  L   R    L   R  L   R    L   R  L   R    L   R  L   R

G|----16-----16--|----16-----16--|---------------|---------------|
D|----17-----17--|----17-----17--|---------------|---------------|
A|--------5------|--------5------|---------0---2-|-3-------0---2-|
E|-3-------------|-3-------------|-3---3---------|-----3---------|
   L   R  L   R    L   R  L   R    T   T   T   T   T   T   T   T

G|----17-----17--|----17-----17--|----17-----17--|----17-----17--|
D|----17-----17--|----17-----17--|----17-----17--|----17-----17--|
A|-3-------------|-3-------------|-3-------------|-3-------------|
E|--------3------|--------3------|--------3------|--------3------|
   L   R  L   R    L   R  L   R    L   R  L   R    L   R  L   R

G|----17-----17--|----17-----17--|----17-----17--|----17-----17--|
D|----19-----19--|----19-----19--|----17-----17--|----17-----17--|
A|--------7------|--------7------|-3-------------|-3-------------|
E|-5-------------|-5-------------|--------3------|--------3------|
   L   R  L   R    L   R  L   R    L   R  L   R    L   R  L   R

G|----17-----17--|----17-----17--|----17-----17--|----17-----17--|
D|----19-----19--|----19-----19--|----17-----17--|----17-----17--|
A|--------7------|--------7------|-3-------------|-3------5------|
E|-5-------------|-5-------------|--------3------|---------------|
   L   R  L   R    L   R  L   R    L   R  L   R    L   R  L   R

G|----16-----16--|----16-----16--|---------------|---------------|
D|----17-----17--|----17-----17--|---------------|---------------|
A|--------5------|--------5------|---------0---2-|-3-------0---2-|
E|-3-------------|-3-------------|-3---3---------|-----3---------|
   L   R  L   R    L   R  L   R    T   T   T   T   T   T   T   T

G|-------0-------0-|-------0-------0-|-------0---0-----|-----------------|
D|-4h5-5---4h5-5---|-4h5-5---4h5-5---|-4h5-5---5---2---|-----------------|
A|-----------------|-----------------|-----------------|-3---------------|
E|-----------------|-----------------|-----------------|-----0---3---4---|
   T   T P T   T P   T   T P T   T P   T   T P T P T     T   T   T   T

G|-----2-----------|-2---------------|-------0---0-----|-----------------|
D|---------2-------|-----2-----------|-4h5-5---5---2---|-----------------|
A|-0-----------3---|---------3---0---|-----------------|-3---------------|
E|-----------------|-----------------|-----------------|-----0---3---4---|
   T   P   P   T     P   P   T   T     T   T P   P T     T   T   T   T

G|-----2-----------|-2---------------|-------0---0-----|-----------------|
D|---------2-------|-----2-----------|-4h5-5---5---2---|-----------------|
A|-0-----------3---|---------3---0---|-----------------|-3---------------|
E|-----------------|-----------------|-----------------|-----0---1---2---|
   T   P   P   T     P   P   T   T     T   T P T P T     T   T   T   T

G|-----------0-----|-------0-------0-|-------0---0-----|-----------------|
D|-----4h5-5---4h5-|-4h5-5---4h5-5---|-4h5-5---5---2---|-----------------|
A|-----------------|-----------------|-----------------|-3-------0---2---|
E|-3---------------|-----------------|-----------------|-----3-----------|
   T   T   T P T     T   T P T   T P   T   T P T P T     T   T   T   T

G|-------0-------0-|-------0-------0-|-------0---0-----|-----------------|
D|-4h5-5---4h5-5---|-4h5-5---4h5-5---|-4h5-5---5---2---|-----------------|
A|-----------------|-----------------|-----------------|-3---------------|
E|-----------------|-----------------|-----------------|-----0---3---4---|
   T   T P T   T P   T   T P T   T P   T   T P T P T     T   T   T   T

G|-----2-----------|-2---------------|-------0---0-----|-----------------|
D|---------2-------|-----2-----------|-4h5-5---5---2---|-----------------|
A|-0-----------3---|---------3---0---|-----------------|-3---------------|
E|-----------------|-----------------|-----------------|-----0---3---4---|
   T   P   P   T     P   P   T   T     T   T P   P T     T   T   T   T

G|-----2-----------|-2---------------|-------0---0-----|-----------------|
D|---------2-------|-----2-----------|-4h5-5---5---2---|-----------------|
A|-0-----------3---|---------3---0---|-----------------|-3---------------|
E|-----------------|-----------------|-----------------|-----0---1---2---|
   T   P   P   T     P   P   T   T     T   T P T P T     T   T   T   T

G|-----------0-----|-------0-------0-|-------0---0-----|-----------------|
D|-----4h5-5---4h5-|-4h5-5---4h5-5---|-4h5-5---5---2---|-----------------|
A|-----------------|-----------------|-----------------|-3---------------|
E|-3---------------|-----------------|-----------------|-----------------|
   T   T   T P T     T   T P T   T P   T   T P T P T     T   

G|----12-12-12-------|----12-12-12-------|----12-12-12-------|-12------12----|
D|-12h14-14-14p12----|-12h14-14-14p12----|-12h14-14-14p12----|-12------12----|
A|----------------15-|----------------15-|----------------15-|----15------15-|
E|-------------------|-------------------|-------------------|---------------|

G|----17-17-17-------|----17-17-17-------|----12-12-12-------|-12------12----|
D|-17h19-19-19p17----|-17h19-19-19p17----|-12h14-14-14p12----|-12------12----|
A|----------------19-|----------------19-|----------------15-|----15------15-|
E|-------------------|-------------------|-------------------|---------------|

G|----17-17-17-------|----17-17-17-------|----12-12-12-------|-12------12----|
D|-17h19-19-19p17----|-17h19-19-19p17----|-12h14-14-14p12----|-12------12----|
A|----------------19-|----------------19-|----------------15-|----15------15-|
E|-------------------|-------------------|-------------------|---------------|

G|----12-------------|----12-------------|----12-------------|---------------|
D|-12h14-----12------|-12h14-----12------|-12h14-----12------|-14------------|
A|--------12h14-x----|--------12h14-x----|--------12h14-x----|-15------------|
E|----------------15-|----------------15-|----------------15-|-----------7h8-|

G|---0----9--12------|---0----9--12------|---0----9--12-11-|-10--9--7-7--8-7-|
D|-----10------------|-----10------------|-----10----------|-----------------|
A|-7-----------------|-7-----------------|-7---------------|-----------------|
E|---------------7h8-|---------------7h8-|-----------------|-----------------|

G|-9--8--7-8--7-6-|-5--4----------|------------7---|-------12----------------|
D|----------------|-------7--7----|---7------7---9-|-10-12----14-15----------|
A|----------------|---------------|-7---9-10-------|----------------12-14-15-|
E|----------------|-------------8-|----------------|-------------------------|

G|----------12----|-/14----12------|-8-9-10-11-12--8-9-|-10-11-12--8-9-10-11-|
D|----12-14----14-|-------------10-|-------------10----|---------10----------|
A|-15-------------|----------------|-------------------|---------------------|
E|----------------|----------------|-------------------|---------------------|

G|-12-0--10-0--9-0--12-0-|-10-0--9-0--7-0--10-0-|-9-0--7-0--4-0--7-0-|-5/----|
D|-----------------------|----------------------|--------------------|-------|
A|-----------------------|----------------------|--------------------|-------|
E|-----------------------|----------------------|--------------------|-------|

G|-10---8h9----------|-----------------------|-------------|-----------------|
D|------------8h10---|--------8h10-----------|-8-8---------|-----------------|
A|-----------------x-|-8h10-x--------8h10--8-|-----10p8----|-8-10-x----------|
E|----x-----x--------|-------------x---------|----------10-|--------8-10-x-6-|
    P T P   T P    T   T    T P    T T     T   P P  T    T   T  T T T  T T T

G|----5-----5-----|-5-----5-----10----|-8h9-----------------|-------------|
D|----------------|-------------------|-------8h10----------|-8-8---------|
A|----------------|-----------------x-|-----x--------8h10-8-|-----10p8----|
E|-5----5-5---5-5-|---5-5---5-5-------|------------x--------|----------10-|
   T  P T T P T T   P T T P T T  P  T   P   T P    T T    T   P P  T    T

G|-----------------|-----------------|-----------------|-5---5-----------|
D|-5h7---------5-x-|-5h7-------------|-------------5h7-|---------7p5-----|
A|-----x-5h7-x-----|-----x-5h7-x-5---|-3---3-5/7-------|-------------7---|
E|-----------------|-----------------|-----------------|-----------------|
   P   T T   T P P   P   T T   T T     T   T T     P     P   P   P   T

G|-------0-------0-|----------0-------0-|-------0---0-----|-----------------|
D|-4h5-5---8h9-9---|-11h12-12---8h9-9---|-4h5-5---5---2---|-----------------|
A|-----------------|--------------------|-----------------|-3---------------|
E|-----------------|--------------------|-----------------|-----------------|
   T   T P T   T P    T     T P T   T P   T   T P T P T     T   

G|-----9-----7-----|-----------------|-----5-------------|-5---5-----------|
D|-----------------|-10-----7--------|-5h7---7p5---------|---------7-5-----|
A|-----------------|------------10---|-----------7-7-5-7-|-------------8---|
E|-8-----8-8---8-8-|----8-8---8------|-------------------|-----------------|
   T   P T T P T T    P T T P T  T     T   P T   T T T T   P   P   T T T

G|-------------4-|------5------7-|-----/10---8h9-----|---------------------|
D|------7-----4--|-----5------7--|-------------------|-8h10------8h10------|
A|-----7--2--2---|-3--3---5--5---|-----------------x-|------8h10------8h10-|
E|-5--5----------|---------------|-8-------x---------|---------------------|
   T  TTP T  TTP   T  TTP T  TTP   T     P T P     T   P    T    P    T   

G|-----------------|-----------------|-----9--------12---|-----17---21\------|
D|-5h7---------5---|-5h7---------0---|-------------------|-------------------|
A|-----x-5h7-x---x-|-----x-5h7-x-----|-------------------|-------------------|
E|-----------------|-----------------|-8-------12--------|-15-------20\------|
   P   T T   T P T   P   T T   T P   

G|-----------5---x-|-4-------5---3h4-|-----------------|-----------------|
D|-------5---------|---x-3h5---x-----|-3h5-----3h5-----|-----------------|
A|------5----------|-----------------|-----3h5-----3h5-|-3---------------|
E|-3---3---3---x---|-----------------|-----------------|-----------------|
   T   TTP T P T P   P T T   P T P     P   T   P   T     T

G|----------------17h19p17-|-------19p17-------19p17-|-21p17h19p17-------|
D|----------17h19----------|-19p17-------19p17-------|-------------19p17-|
A|-15h17h19----------------|-------------------------|-------------------|
E|-------------------------|-------------------------|-------------------| 
          R  L  R  L  R       R     R     R     R       R           R                                                  
    
G|19p17-21p17h19h17-------19----|  |-19p14h17-19p17p14-19p14h17-19p17p14-|
D|------------------19p17-------|  |*-----------------------------------*|
A|------------------------------|  |*-----------------------------------*| x2
E|------------------------------|  |-------------------------------------|
   R     R           R     R          R        R        R        R

G|-19p17-------------------|-----------------------|-------------------------|
D|-------19p17-------19p17-|-19p17-----------------|----14----19----14----19-|
A|-------------19p17-------|-------19p17\15--------|-12----19----12----19----|
E|-------------------------|-----------------------|-------------------------|
    R     R     R     R       R     R                 L  L  R  R  L  L  R  R 

G|-------------------------|-------------17h21p17----|-----------------------|
D|----14----19----14----19-|----17----22----------22-|----17----17h22--------|
A|-12----19----12----19----|-15----22----------------|-22----15--------------|
E|-------------------------|-------------------------|-----------------------|
    L  L  R  R  L  L  R  R    L  L  R  R  L  R     R    R  L  L  L  R
 
G|-12p7p4p0h4h7-12p7p4p0h4h7-|-12p7p4p0h4h7-12p7p4p0h4h7-|-12p7p4p0----8^(9)-|
D|---------------------------|---------------------------|-------------------|
A|---------------------------|---------------------------|-------------------|
E|---------------------------|---------------------------|-------------------|
    R            R              R            R              R         

G|-17--------|-------------17-21-17----------|-------------17-21-17----------|
D|-----------|----17----22----------22----17-|----17----22----------22----17-|
A|-----------|-15----22----------------22----|-15----22----------------22----|
E|-----------|-------------------------------|-------------------------------|
    R           L  L  R  R  L  R  L  R  R  L    L  L  R  R  L  R  L  R  R  L 
 
G|-------------17-21-17----------|-------------17-21-17----------|
D|----17----22----------22----17-|----17----22----------22----17-|
A|-15----22----------------22----|-15----22----------------22----|
E|-------------------------------|-------------------------------|
    L  L  R  R  L  R  L  R  R  L    L  L  R  R  L  R  L  R  R  L   
 
G|-------------14-17-14----------|-------------14-17-14----------|
D|----14----19----------19----14-|----17----19----------19----14-|
A|-12----19----------------19----|-12----19----------------19----|
E|-------------------------------|-------------------------------|
    L  L  R  R  L  R  L  R  R  L    L  L  R  R  L  R  L  R  R  L        

G|-------------17-21-17----------|-------------17-21-17----------|
D|----17----22----------22----17-|----17----22----------22----17-|
A|-15----22----------------22----|-15----22----------------22----|
E|-------------------------------|-------------------------------|
    L  L  R  R  L  R  L  R  R  L    L  L  R  R  L  R  L  R  R  L 

G|-------------14-17-14----------|-------------14-17-14----------|
D|----14----19----------19----14-|----17----19----------19----14-|
A|-12----19----------------19----|-12----19----------------19----|
E|-------------------------------|-------------------------------|
    L  L  R  R  L  R  L  R  R  L    L  L  R  R  L  R  L  R  R  L 
 
G|-------------17-21-17----------|-------------17-21-17----------|
D|----17----22----------22----17-|----17----22----------22----17-|
A|-15----22----------------22----|-15----22----------------22----|
E|-------------------------------|-------------------------------|
    L  L  R  R  L  R  L  R  R  L    L  L  R  R  L  R  L  R  R  L 

G|-------------------------------|-------------------------------|
D|-------------17-21-17----------|-------------17-21-17----------|
A|----17----22----------22----17-|----17----22----------22----17-|
E|-15----22----------------22----|-15----22----------------22----|
    L  L  R  R  L  R  L  R  R  L    L  L  R  R  L  R  L  R  R  L 
 
G|-------------------------------|-------------------------------|
D|-------------17-21-17----------|-------------------------------|
A|----17----22----------22----17-|-15----------------------------|
E|-15----22----------------22----|-------------------------------|
    L  L  R  R  L  R  L  R  R  L    L      

G|---17-------17-------17-------17----|---17-------17-------17-------17----|
D|------17-------17-------17-------17-|------17-------17-------17-------17-|
A|------------------------------------|------------------------------------|
E|-8-------10-------12-------10-------|-8-------10-------12-------10-------|
   L  R  R  L  R  R  L R   R  L  R  R   L  R  R  L  R  R  L R   R  L  R  R

G|---17-------17-------17-------17----|---17-------17-------17-------17----|
D|------17-------17-------17-------17-|------17-------17-------17-------17-|
A|------------------------------------|------------------------------------|
E|-8-------10-------12-------10-------|-8--------8--------7--------6-------|
   L  R  R  L  R  R  L R   R  L  R  R   L  R  R  L  R  R  L R   R  L  R  R

G|---14-------14-------14-------14----|---14-------14--------14------14----|
D|------14-------14-------14-------14-|------14-------14--------14------14-|
A|------------------------------------|------------------------------------|
E|-5--------7--------8--------7-------|-5--------7--------8--------7-------|
   L  R  R  L  R  R  L R   R  L  R  R   L  R  R  L  R  R  L R   R  L  R  R

G|---17-------17-------17-------17----|---17-------17-------17-------17----|
D|------17-------17-------17-------17-|------17-------17-------17-------17-|
A|------------------------------------|------------------------------------|
E|-8-------10-------12-------10-------|-8--------8--------7--------6-------|
   L  R  R  L  R  R  L R   R  L  R  R   L  R  R  L  R  R  L R   R  L  R  R

G|---14-------14-------14-------14----|---14-------14--------14------14----|
D|------14-------14-------14-------14-|------14-------14--------14------14-|
A|------------------------------------|------------------------------------|
E|-5--------7--------8--------7-------|-5--------7--------8--------7-------|
   L  R  R  L  R  R  L R   R  L  R  R   L  R  R  L  R  R  L R   R  L  R  R

G|---17-------17-------17-------17----|---17-------17-------17-------17----|
D|------17-------17-------17-------17-|------17-------17-------17-------17-|
A|------------------------------------|------------------------------------|
E|-8-------10-------12-------10-------|-8--------8--------7--------6-------|
   L  R  R  L  R  R  L R   R  L  R  R   L  R  R  L  R  R  L R   R  L  R  R

G|---12-------12-------12-------12----|---12-------12-------12-------12----|
D|------12-------12-------12-------12-|------12-------12-------12-------12-|
A|------------------------------------|------------------10-------10-------|
E|-3--------3--------7--------7-------|-10------10-------------------------|
   L  R  R  L R   R  L  R  R  L R   R    L R  R  L  R  R  L  R  R  L  R  R

G|----12-------12-------12------12----|-----------------|
D|-------12-------12------12-------12-|-----------------|
A|-10-------8--------7--------5-------|-3-------0---2---|
E|------------------------------------|-----3-----------|
    L  R  R L  R  R  L  R  R  L  R  R   L   T   T   T

G|-------0-------0-|-------0-------0-|-------0---0-----|-----------------|
D|-4h5-5---4h5-5---|-4h5-5---4h5-5---|-4h5-5---5---2---|-----------------|
A|-----------------|-----------------|-----------------|-3---------------|
E|-----------------|-----------------|-----------------|-----0---3---4---|
   T   T P T   T P   T   T P T   T P   T   T P T P T     T   T   T   T

G|-----2-----------|-2---------------|-------0---0-----|-----------------|
D|---------2-------|-----2-----------|-4h5-5---5---2---|-----------------|
A|-0-----------3---|---------3---0---|-----------------|-3---------------|
E|-----------------|-----------------|-----------------|-----0---3---4---|
   T   P   P   T     P   P   T   T     T   T P   P T     T   T   T   T

G|-----2-----------|-2---------------|-------0---0-----|-----------------|
D|---------2-------|-----2-----------|-4h5-5---5---2---|-----------------|
A|-0-----------3---|---------3---0---|-----------------|-3---------------|
E|-----------------|-----------------|-----------------|-----0---1---2---|
   T   P   P   T     P   P   T   T     T   T P T P T     T   T   T   T

G|-----------0-----|-------0-------0-|-------0---0-----|-----------------|
D|-----4h5-5---4h5-|-4h5-5---4h5-5---|-4h5-5---5---2---|-----------------|
A|-----------------|-----------------|-----------------|-3---------------|
E|-3---------------|-----------------|-----------------|-----------------|
   T   T   T P T     T   T P T   T P   T   T P T P T     T   

G|----17--------17-----|---17--------------|-5-------------------|---4---5---|
D|------17--------17---|-----17------------|-----5h7p5h7----5----|---3---2---|
A|-15-----19-10-----19-|-7-----19-3--------|---------------------|-----------|
E|---------------------|-------------------|---------------------|-----------|
    L  R R R  L  R R R   L  R R R L          P   T T T T    T
            
Submit corrections

↑ Back to top | Tablatures and chords for acoustic guitar and electric guitar, ukulele, drums are parodies/interpretations of the original songs. You may use it for private study, scholarship, research or language learning purposes only