» » »

Strunz And Farah - The Hare Tabs

Artists:  A B C D E F G H I J K L M N O P Q R S T U V W X Y Z # 

The Hare Tabs

(ver. 1) Click to play this song!
Strunz And Farah
 Rating:
2.8/5 (20 votes)

 The Hare  lessons Tabs too difficult? Try these video lessons and learn fast
 
                Intro

e|--7---7---7---7---7---7---7---7--|
B|--8---8---8---8---8---8---8---8--|
G|--9---9---9---9---9---9---9---9--|
D|--9---9---9---9---9---9---9---9--|
A|--7---7---7---7---7---7---7---7--|
E|---------------------------------|


Part A

  Em      EmM7    B       ?
|-------|-------|-------|-------|
|-8-5-0-|-8-4-0-|-7-4-0-|-5-4-0-|
|-------|-------|-------|-------|
|-------|-------|-------|-------|
|--x8---|--x8---|--x8---|--x8---|
|-------|-------|-------|-------|

  Bm      Dm      A             Am
|-------|-------|-------------|-------|-------|
|-5-3-0-|-6-3-0-|-5-3-0-3-2-0-|-5-1-0-|-0-----|
|-------|-------|-------------|-------|-------|
|-------|-------|-------------|-------|-------|
|--x8---|--x8---|-----x4------|--x6---|-------|
|-------|-------|-------------|-------|-------|


Part B

  B       C       B       Bb      B       C       B       Bb
|-7-4-0-|-8-5-0-|-7-4-0-|-6-3-0-|-7-4-0-|-8-5-0-|-7-4-0-|-6-3-0-|
|-------|-------|-------|-------|-------|-------|-------|-------|
|-------|-------|-------|-------|-------|-------|-------|-------|
|-------|-------|-------|-------|-------|-------|-------|-------|
|--x2---|--x2---|--x2---|--x2---|--x2---|--x2---|--x2---|--x2---|
|-------|-------|-------|-------|-------|-------|-------|-------|

  ?       ?             End
|-5-3-0-|-6-4-0-|      |-7~~~~-|
|-------|-------|      |-------|
|-------|-------|      |-------|
|-------|-------|      |-------|
|--x4---|--x4---|      |-------|
|-------|-------|      |-------|


            
Submit corrections


        The Hare  lessons Hard to play? Try these video lessons and learn fast The Hare  lessons
        
↑ Back to top | Tablatures and chords for acoustic guitar and electric guitar, ukulele, drums are parodies/interpretations of the original songs. You may use it for private study, scholarship, research or language learning purposes only